  0
SECTION
  2
HEADER
  9
$ACADVER
  1
AC1006
  9
$AXISMODE
 70
     0
  9
$AXISUNIT
 10
0.0625
 20
0.0625
  9
$CECOLOR
 62
0
  9
$CELTYPE
  6
CONTINUOUS
  9
$CLAYER
  8
LAYER1
  9
$EXTMIN
 10
0
 20
0
  9
$EXTMAX
 10
7.6667
 20
10.9006
  9
$LIMMIN
 10
0
 20
0
  9
$LIMMAX
 10
7.6667
 20
10.9006
  9
$GRIDMODE
 70
     0
  9
$GRIDUNIT
 10
0.125
 20
0.125
  9
$MIRRTEXT
 70
     1
  9
$SNAPMODE
 70
     1
  9
$SNAPUNIT
 10
0.125
 20
0
  9
$SNAPSTYLE
 70
     0
  9
$SPLINESEGS
 70
     8
  9
$SPLINETYPE
 70
     6
  0
ENDSEC
  0
SECTION
  2
TABLES
  0TABLE  2VPORT 70     2  0VPORT  2*ACTIVE 70     0 100.0 200.0 111.0 211.0 1213.01087 224.5 130.0 230.0 141.0 241.0 150.0 250.0 160.0 260.0 361.0 170.0 270.0 370.0 409.0 412.891304 4250.0 430.0 440.0 500.0 510.0 71     0 72   100 73     1 74     1 75     0 76     0 77     0 78     0  0ENDTAB
  0
TABLE
  2
LTYPE
 70
     1
  0
LTYPE
  2
CONTINUOUS
 70
    64
  3
Descriptive Text
 72
    65
 73
     0
 40
0
  0
ENDTAB
  0
TABLE
  2
LAYER
 70
     1
  0
LAYER
  2
LAYER1
 70
     0
 62
     7
  6
CONTINUOUS
  0
ENDTAB
  0TABLE  2STYLE 70     1  0STYLE  2STANDARD 70     0 400.0 411.0 500.0 71     0 420.2  3txt  4  0ENDTAB
  0
TABLE
  2
VIEW
 70
     0
  0
ENDTAB
  0
TABLE
  2
UCS
 70
     0
  0
ENDTAB
  0
TABLE
  2
DWGMGR
 70
     0
  0
ENDTAB
  0
ENDSEC
  0
SECTION
  2
BLOCKS
  0
BLOCK
  8
LAYER1
  2
Group1
 70
     0
 10
0
 20
0
 30
0
  0
LINE
  8
LAYER1
  6
CONTINUOUS
 62
     7
 10
0.2222
 20
10.5812
 30
0
 11
4.7222
 21
10.5812
 31
0
  0
POLYLINE
  8
LAYER1
  6
CONTINUOUS
 62
     7
 66
     1
 70
     0
 40
0.001
 41
0.001
  0
VERTEX
  8
LAYER1
 10
0.8819
 20
9.6923
 30
0
 70
     0
  0
VERTEX
  8
LAYER1
 10
0.9761
 20
9.7057
 30
0
 70
     0
  0
VERTEX
  8
LAYER1
 10
1.0434
 20
9.7461
 30
0
 70
     0
  0
VERTEX
  8
LAYER1
 10
1.0838
 20
9.8134
 30
0
 70
     0
  0
VERTEX
  8
LAYER1
 10
1.0972
 20
9.9075
 30
0
 70
     0
  0
VERTEX
  8
LAYER1
 10
1.0972
 20
9.9075
 30
0
 70
     0
  0
VERTEX
  8
LAYER1
 10
1.0877
 20
10.0017
 30
0
 70
     0
  0
VERTEX
  8
LAYER1
 10
1.059
 20
10.069
 30
0
 70
     0
  0
VERTEX
  8
LAYER1
 10
1.0113
 20
10.1094
 30
0
 70
     0
  0
VERTEX
  8
LAYER1
 10
0.9444
 20
10.1228
 30
0
 70
     0
  0
VERTEX
  8
LAYER1
 10
0.9444
 20
10.1228
 30
0
 70
     0
  0
VERTEX
  8
LAYER1
 10
0.8776
 20
10.122
 30
0
 70
     0
  0
VERTEX
  8
LAYER1
 10
0.8299
 20
10.1194
 30
0
 70
     0
  0
VERTEX
  8
LAYER1
 10
0.8012
 20
10.115
 30
0
 70
     0
  0
VERTEX
  8
LAYER1
 10
0.7917
 20
10.1089
 30
0
 70
     0
  0
VERTEX
  8
LAYER1
 10
0.7917
 20
10.1089
 30
0
 70
     0
  0
VERTEX
  8
LAYER1
 10
0.7882
 20
10.0985
 30
0
 70
     0
  0
VERTEX
  8
LAYER1
 10
0.7778
 20
10.095
 30
0
 70
     0
  0
VERTEX
  8
LAYER1
 10
0.7778
 20
10.095
 30
0
 70
     0
  0
VERTEX
  8
LAYER1
 10
0.7621
 20
10.0985
 30
0
 70
     0
  0
VERTEX
  8
LAYER1
 10
0.7431
 20
10.1089
 30
0
 70
     0
  0
VERTEX
  8
LAYER1
 10
0.7431
 20
10.1089
 30
0
 70
     0
  0
VERTEX
  8
LAYER1
 10
0.7239
 20
10.1194
 30
0
 70
     0
  0
VERTEX
  8
LAYER1
 10
0.7083
 20
10.1228
 30
0
 70
     0
  0
VERTEX
  8
LAYER1
 10
0.7083
 20
10.1228
 30
0
 70
     0
  0
VERTEX
  8
LAYER1
 10
0.6944
 20
10.1194
 30
0
 70
     0
  0
VERTEX
  8
LAYER1
 10
0.6806
 20
10.1089
 30
0
 70
     0
  0
VERTEX
  8
LAYER1
 10
0.6806
 20
10.1089
 30
0
 70
     0
  0
VERTEX
  8
LAYER1
 10
0.6745
 20
10.0903
 30
0
 70
     0
  0
VERTEX
  8
LAYER1
 10
0.6701
 20
10.0482
 30
0
 70
     0
  0
VERTEX
  8
LAYER1
 10
0.6675
 20
9.9826
 30
0
 70
     0
  0
VERTEX
  8
LAYER1
 10
0.6667
 20
9.8937
 30
0
 70
     0
  0
VERTEX
  8
LAYER1
 10
0.6667
 20
9.8937
 30
0
 70
     0
  0
VERTEX
  8
LAYER1
 10
0.6801
 20
9.8056
 30
0
 70
     0
  0
VERTEX
  8
LAYER1
 10
0.7205
 20
9.7426
 30
0
 70
     0
  0
VERTEX
  8
LAYER1
 10
0.7878
 20
9.7049
 30
0
 70
     0
  0
VERTEX
  8
LAYER1
 10
0.8819
 20
9.6923
 30
0
 70
     0
  0
SEQEND
  0
CIRCLE
  8
LAYER1
 10
0.8958
 20
9.8937
 30
0
 40
0.0764
  0
POLYLINE
  8
LAYER1
  6
CONTINUOUS
 62
     7
 66
     1
 70
     0
 40
0.001
 41
0.001
  0
VERTEX
  8
LAYER1
 10
0.875
 20
9.9562
 30
0
 70
     0
  0
VERTEX
  8
LAYER1
 10
0.8889
 20
9.9423
 30
0
 70
     0
  0
VERTEX
  8
LAYER1
 10
0.8472
 20
9.9145
 30
0
 70
     0
  0
VERTEX
  8
LAYER1
 10
0.8333
 20
9.9284
 30
0
 70
     0
  0
VERTEX
  8
LAYER1
 10
0.875
 20
9.9562
 30
0
 70
     0
  0
SEQEND
  0
POLYLINE
  8
LAYER1
  6
CONTINUOUS
 62
     7
 66
     1
 70
     0
 40
0.001
 41
0.001
  0
VERTEX
  8
LAYER1
 10
0.875
 20
9.9145
 30
0
 70
     0
  0
VERTEX
  8
LAYER1
 10
0.9028
 20
9.9145
 30
0
 70
     0
  0
VERTEX
  8
LAYER1
 10
0.9028
 20
9.8867
 30
0
 70
     0
  0
VERTEX
  8
LAYER1
 10
0.875
 20
9.8867
 30
0
 70
     0
  0
VERTEX
  8
LAYER1
 10
0.875
 20
9.9145
 30
0
 70
     0
  0
SEQEND
  0
LINE
  8
LAYER1
  6
CONTINUOUS
 62
     7
 10
0.7917
 20
10.1228
 30
0
 11
1
 21
10.1228
 31
0
  0
LINE
  8
LAYER1
  6
CONTINUOUS
 62
     7
 10
0.7917
 20
9.9978
 30
0
 11
0.7917
 21
10.1228
 31
0
  0
POLYLINE
  8
LAYER1
  6
CONTINUOUS
 62
     7
 66
     1
 70
     0
 40
0.001
 41
0.001
  0
VERTEX
  8
LAYER1
 10
1.0278
 20
10.0117
 30
0
 70
     0
  0
VERTEX
  8
LAYER1
 10
1.0245
 20
9.9956
 30
0
 70
     0
  0
VERTEX
  8
LAYER1
 10
1.0155
 20
9.9823
 30
0
 70
     0
  0
VERTEX
  8
LAYER1
 10
1.0023
 20
9.9733
 30
0
 70
     0
  0
VERTEX
  8
LAYER1
 10
0.9861
 20
9.97
 30
0
 70
     0
  0
SEQEND
  0
LINE
  8
LAYER1
  6
CONTINUOUS
 62
     7
 10
1
 20
10.1228
 30
0
 11
1
 21
10.0256
 31
0
  0
LINE
  8
LAYER1
  6
CONTINUOUS
 62
     7
 10
0.9722
 20
9.9978
 30
0
 11
0.7917
 21
9.9978
 31
0
  0
POLYLINE
  8
LAYER1
  6
CONTINUOUS
 62
     7
 66
     1
 70
     0
 40
0.001
 41
0.001
  0
VERTEX
  8
LAYER1
 10
0.9583
 20
10.1089
 30
0
 70
     0
  0
VERTEX
  8
LAYER1
 10
1
 20
10.1089
 30
0
 70
     0
  0
VERTEX
  8
LAYER1
 10
1
 20
10.0812
 30
0
 70
     0
  0
VERTEX
  8
LAYER1
 10
0.9583
 20
10.0812
 30
0
 70
     0
  0
VERTEX
  8
LAYER1
 10
0.9583
 20
10.1089
 30
0
 70
     0
  0
SEQEND
  0
POLYLINE
  8
LAYER1
  6
CONTINUOUS
 62
     7
 66
     1
 70
     0
 40
0.001
 41
0.001
  0
VERTEX
  8
LAYER1
 10
0.8611
 20
10.102
 30
0
 70
     0
  0
VERTEX
  8
LAYER1
 10
0.8576
 20
10.1072
 30
0
 70
     0
  0
VERTEX
  8
LAYER1
 10
0.8472
 20
10.1089
 30
0
 70
     0
  0
VERTEX
  8
LAYER1
 10
0.8472
 20
10.1089
 30
0
 70
     0
  0
VERTEX
  8
LAYER1
 10
0.8368
 20
10.1072
 30
0
 70
     0
  0
VERTEX
  8
LAYER1
 10
0.8333
 20
10.102
 30
0
 70
     0
  0
VERTEX
  8
LAYER1
 10
0.8333
 20
10.102
 30
0
 70
     0
  0
VERTEX
  8
LAYER1
 10
0.8316
 20
10.0968
 30
0
 70
     0
  0
VERTEX
  8
LAYER1
 10
0.8264
 20
10.095
 30
0
 70
     0
  0
VERTEX
  8
LAYER1
 10
0.8264
 20
10.095
 30
0
 70
     0
  0
VERTEX
  8
LAYER1
 10
0.8212
 20
10.0829
 30
0
 70
     0
  0
VERTEX
  8
LAYER1
 10
0.8194
 20
10.0464
 30
0
 70
     0
  0
VERTEX
  8
LAYER1
 10
0.8194
 20
10.0464
 30
0
 70
     0
  0
VERTEX
  8
LAYER1
 10
0.8264
 20
10.01
 30
0
 70
     0
  0
VERTEX
  8
LAYER1
 10
0.8472
 20
9.9978
 30
0
 70
     0
  0
VERTEX
  8
LAYER1
 10
0.8472
 20
9.9978
 30
0
 70
     0
  0
VERTEX
  8
LAYER1
 10
0.8681
 20
10.01
 30
0
 70
     0
  0
VERTEX
  8
LAYER1
 10
0.875
 20
10.0464
 30
0
 70
     0
  0
VERTEX
  8
LAYER1
 10
0.875
 20
10.0464
 30
0
 70
     0
  0
VERTEX
  8
LAYER1
 10
0.8733
 20
10.0829
 30
0
 70
     0
  0
VERTEX
  8
LAYER1
 10
0.8681
 20
10.095
 30
0
 70
     0
  0
VERTEX
  8
LAYER1
 10
0.8681
 20
10.095
 30
0
 70
     0
  0
VERTEX
  8
LAYER1
 10
0.8628
 20
10.0968
 30
0
 70
     0
  0
VERTEX
  8
LAYER1
 10
0.8611
 20
10.102
 30
0
 70
     0
  0
SEQEND
  0
POLYLINE
  8
LAYER1
  6
CONTINUOUS
 62
     7
 66
     1
 70
     0
 40
0.001
 41
0.001
  0
VERTEX
  8
LAYER1
 10
0.6806
 20
9.7339
 30
0
 70
     0
  0
VERTEX
  8
LAYER1
 10
0.7222
 20
9.7339
 30
0
 70
     0
  0
VERTEX
  8
LAYER1
 10
0.7222
 20
9.7062
 30
0
 70
     0
  0
VERTEX
  8
LAYER1
 10
0.6806
 20
9.7062
 30
0
 70
     0
  0
VERTEX
  8
LAYER1
 10
0.6806
 20
9.7339
 30
0
 70
     0
  0
SEQEND
  0
POLYLINE
  8
LAYER1
  6
CONTINUOUS
 62
     7
 66
     1
 70
     0
 40
0.001
 41
0.001
  0
VERTEX
  8
LAYER1
 10
1.0694
 20
9.7478
 30
0
 70
     0
  0
VERTEX
  8
LAYER1
 10
1.1111
 20
9.7478
 30
0
 70
     0
  0
VERTEX
  8
LAYER1
 10
1.1111
 20
9.6784
 30
0
 70
     0
  0
VERTEX
  8
LAYER1
 10
1.0694
 20
9.6784
 30
0
 70
     0
  0
VERTEX
  8
LAYER1
 10
1.0694
 20
9.7478
 30
0
 70
     0
  0
SEQEND
  0
ENDBLK
  8
LAYER1
  0
BLOCK
  8
LAYER1
  2
Group2
 70
     0
 10
0
 20
0
 30
0
  0
CIRCLE
  8
LAYER1
 10
2.375
 20
9.8312
 30
0
 40
0.0833
  0
POLYLINE
  8
LAYER1
  6
CONTINUOUS
 62
     7
 66
     1
 70
     1
 40
0.001
 41
0.001
  0
VERTEX
  8
LAYER1
 10
2.3889
 20
9.7339
 30
0
 70
     0
  0
VERTEX
  8
LAYER1
 10
2.3958
 20
9.7339
 30
0
 70
     0
  0
VERTEX
  8
LAYER1
 10
2.3958
 20
9.7339
 30
0
 70
     0
  0
VERTEX
  8
LAYER1
 10
2.4093
 20
9.7312
 30
0
 70
     0
  0
VERTEX
  8
LAYER1
 10
2.4203
 20
9.7237
 30
0
 70
     0
  0
VERTEX
  8
LAYER1
 10
2.4278
 20
9.7127
 30
0
 70
     0
  0
VERTEX
  8
LAYER1
 10
2.4306
 20
9.6992
 30
0
 70
     0
  0
VERTEX
  8
LAYER1
 10
2.4306
 20
9.6992
 30
0
 70
     0
  0
VERTEX
  8
LAYER1
 10
2.4306
 20
9.602
 30
0
 70
     0
  0
VERTEX
  8
LAYER1
 10
2.4306
 20
9.602
 30
0
 70
     0
  0
VERTEX
  8
LAYER1
 10
2.4278
 20
9.5885
 30
0
 70
     0
  0
VERTEX
  8
LAYER1
 10
2.4203
 20
9.5775
 30
0
 70
     0
  0
VERTEX
  8
LAYER1
 10
2.4093
 20
9.57
 30
0
 70
     0
  0
VERTEX
  8
LAYER1
 10
2.3958
 20
9.5673
 30
0
 70
     0
  0
VERTEX
  8
LAYER1
 10
2.3958
 20
9.5673
 30
0
 70
     0
  0
VERTEX
  8
LAYER1
 10
2.3819
 20
9.5673
 30
0
 70
     0
  0
VERTEX
  8
LAYER1
 10
2.3819
 20
9.5673
 30
0
 70
     0
  0
VERTEX
  8
LAYER1
 10
2.3685
 20
9.57
 30
0
 70
     0
  0
VERTEX
  8
LAYER1
 10
2.3574
 20
9.5775
 30
0
 70
     0
  0
VERTEX
  8
LAYER1
 10
2.35
 20
9.5885
 30
0
 70
     0
  0
VERTEX
  8
LAYER1
 10
2.3472
 20
9.602
 30
0
 70
     0
  0
VERTEX
  8
LAYER1
 10
2.3472
 20
9.602
 30
0
 70
     0
  0
VERTEX
  8
LAYER1
 10
2.3472
 20
9.6992
 30
0
 70
     0
  0
VERTEX
  8
LAYER1
 10
2.3472
 20
9.6992
 30
0
 70
     0
  0
VERTEX
  8
LAYER1
 10
2.35
 20
9.7127
 30
0
 70
     0
  0
VERTEX
  8
LAYER1
 10
2.3574
 20
9.7237
 30
0
 70
     0
  0
VERTEX
  8
LAYER1
 10
2.3685
 20
9.7312
 30
0
 70
     0
  0
VERTEX
  8
LAYER1
 10
2.3819
 20
9.7339
 30
0
 70
     0
  0
VERTEX
  8
LAYER1
 10
2.3819
 20
9.7339
 30
0
 70
     0
  0
VERTEX
  8
LAYER1
 10
2.3889
 20
9.7339
 30
0
 70
     0
  0
SEQEND
  0
LINE
  8
LAYER1
  6
CONTINUOUS
 62
     7
 10
2.6389
 20
10.0812
 30
0
 11
2.6806
 21
10.0812
 31
0
  0
POLYLINE
  8
LAYER1
  6
CONTINUOUS
 62
     7
 66
     1
 70
     0
 40
0.001
 41
0.001
  0
VERTEX
  8
LAYER1
 10
2.6806
 20
10.0395
 30
0
 70
     0
  0
VERTEX
  8
LAYER1
 10
2.6389
 20
10.0395
 30
0
 70
     0
  0
VERTEX
  8
LAYER1
 10
2.6389
 20
10.0812
 30
0
 70
     0
  0
SEQEND
  0
LINE
  8
LAYER1
  6
CONTINUOUS
 62
     7
 10
2.0833
 20
10.1367
 30
0
 11
2.6806
 21
10.1367
 31
0
  0
POLYLINE
  8
LAYER1
  6
CONTINUOUS
 62
     7
 66
     1
 70
     0
 40
0.001
 41
0.001
  0
VERTEX
  8
LAYER1
 10
2.6806
 20
9.5395
 30
0
 70
     0
  0
VERTEX
  8
LAYER1
 10
2.0833
 20
9.5395
 30
0
 70
     0
  0
VERTEX
  8
LAYER1
 10
2.0833
 20
10.1367
 30
0
 70
     0
  0
SEQEND
  0
LINE
  8
LAYER1
  6
CONTINUOUS
 62
     7
 10
2.6806
 20
10.1367
 30
0
 11
2.6806
 21
10.0812
 31
0
  0
LINE
  8
LAYER1
  6
CONTINUOUS
 62
     7
 10
2.6806
 20
10.0395
 30
0
 11
2.6806
 21
9.5395
 31
0
  0
CIRCLE
  8
LAYER1
 10
2.3819
 20
9.8242
 30
0
 40
0.0764
  0
CIRCLE
  8
LAYER1
 10
2.4792
 20
9.7687
 30
0
 40
0.0208
  0
ENDBLK
  8
LAYER1
  0
BLOCK
  8
LAYER1
  2
Group3
 70
     0
 10
0
 20
0
 30
0
  0
CIRCLE
  8
LAYER1
 10
3.7778
 20
9.8312
 30
0
 40
0.0833
  0
LINE
  8
LAYER1
  6
CONTINUOUS
 62
     7
 10
3.4722
 20
10.1367
 30
0
 11
4.0694
 21
10.1367
 31
0
  0
POLYLINE
  8
LAYER1
  6
CONTINUOUS
 62
     7
 66
     1
 70
     0
 40
0.001
 41
0.001
  0
VERTEX
  8
LAYER1
 10
4.0694
 20
9.5395
 30
0
 70
     0
  0
VERTEX
  8
LAYER1
 10
3.4722
 20
9.5395
 30
0
 70
     0
  0
VERTEX
  8
LAYER1
 10
3.4722
 20
10.1367
 30
0
 70
     0
  0
SEQEND
  0
LINE
  8
LAYER1
  6
CONTINUOUS
 62
     7
 10
4.0694
 20
10.1367
 30
0
 11
4.0694
 21
9.5395
 31
0
  0
CIRCLE
  8
LAYER1
 10
3.7847
 20
9.8242
 30
0
 40
0.0764
  0
CIRCLE
  8
LAYER1
 10
3.7708
 20
9.8242
 30
0
 40
0.2847
  0
ENDBLK
  8
LAYER1
  0
BLOCK
  8
LAYER1
  2
Group4
 70
     0
 10
0
 20
0
 30
0
  0
CIRCLE
  8
LAYER1
 10
4.9861
 20
9.7617
 30
0
 40
0.2361
  0
CIRCLE
  8
LAYER1
 10
5.5208
 20
9.7548
 30
0
 40
0.0625
  0
LINE
  8
LAYER1
  6
CONTINUOUS
 62
     7
 10
5.7778
 20
9.4562
 30
0
 11
4.6944
 21
9.4562
 31
0
  0
POLYLINE
  8
LAYER1
  6
CONTINUOUS
 62
     7
 66
     1
 70
     0
 40
0.001
 41
0.001
  0
VERTEX
  8
LAYER1
 10
4.6944
 20
10.0117
 30
0
 70
     0
  0
VERTEX
  8
LAYER1
 10
4.6988
 20
10.0332
 30
0
 70
     0
  0
VERTEX
  8
LAYER1
 10
4.7108
 20
10.0509
 30
0
 70
     0
  0
VERTEX
  8
LAYER1
 10
4.7285
 20
10.0629
 30
0
 70
     0
  0
VERTEX
  8
LAYER1
 10
4.75
 20
10.0673
 30
0
 70
     0
  0
SEQEND
  0
LINE
  8
LAYER1
  6
CONTINUOUS
 62
     7
 10
4.6944
 20
9.4562
 30
0
 11
4.6944
 21
10.0256
 31
0
  0
POLYLINE
  8
LAYER1
  6
CONTINUOUS
 62
     7
 66
     1
 70
     0
 40
0.001
 41
0.001
  0
VERTEX
  8
LAYER1
 10
5.7361
 20
10.0673
 30
0
 70
     0
  0
VERTEX
  8
LAYER1
 10
5.7576
 20
10.0629
 30
0
 70
     0
  0
VERTEX
  8
LAYER1
 10
5.7753
 20
10.0509
 30
0
 70
     0
  0
VERTEX
  8
LAYER1
 10
5.7873
 20
10.0332
 30
0
 70
     0
  0
VERTEX
  8
LAYER1
 10
5.7917
 20
10.0117
 30
0
 70
     0
  0
SEQEND
  0
LINE
  8
LAYER1
  6
CONTINUOUS
 62
     7
 10
5.7778
 20
10.0256
 30
0
 11
5.7778
 21
9.4562
 31
0
  0
LINE
  8
LAYER1
  6
CONTINUOUS
 62
     7
 10
4.7361
 20
10.0673
 30
0
 11
5.7222
 21
10.0673
 31
0
  0
LINE
  8
LAYER1
  6
CONTINUOUS
 62
     7
 10
5.1528
 20
10.0673
 30
0
 11
5.4861
 21
10.0673
 31
0
  0
LINE
  8
LAYER1
  6
CONTINUOUS
 62
     7
 10
5.1528
 20
9.9839
 30
0
 11
5.1528
 21
10.0673
 31
0
  0
LINE
  8
LAYER1
  6
CONTINUOUS
 62
     7
 10
5.4861
 20
10.0256
 30
0
 11
5.4444
 21
9.9839
 31
0
  0
LINE
  8
LAYER1
  6
CONTINUOUS
 62
     7
 10
5.4861
 20
10.0673
 30
0
 11
5.4861
 21
10.0256
 31
0
  0
LINE
  8
LAYER1
  6
CONTINUOUS
 62
     7
 10
5.4444
 20
9.9839
 30
0
 11
5.1528
 21
9.9839
 31
0
  0
POLYLINE
  8
LAYER1
  6
CONTINUOUS
 62
     7
 66
     1
 70
     1
 40
0.001
 41
0.001
  0
VERTEX
  8
LAYER1
 10
5.0278
 20
9.7548
 30
0
 70
     0
  0
VERTEX
  8
LAYER1
 10
5.0245
 20
9.7413
 30
0
 70
     0
  0
VERTEX
  8
LAYER1
 10
5.0155
 20
9.7303
 30
0
 70
     0
  0
VERTEX
  8
LAYER1
 10
5.0023
 20
9.7228
 30
0
 70
     0
  0
VERTEX
  8
LAYER1
 10
4.9861
 20
9.72
 30
0
 70
     0
  0
VERTEX
  8
LAYER1
 10
4.9861
 20
9.72
 30
0
 70
     0
  0
VERTEX
  8
LAYER1
 10
4.97
 20
9.7228
 30
0
 70
     0
  0
VERTEX
  8
LAYER1
 10
4.9567
 20
9.7303
 30
0
 70
     0
  0
VERTEX
  8
LAYER1
 10
4.9477
 20
9.7413
 30
0
 70
     0
  0
VERTEX
  8
LAYER1
 10
4.9444
 20
9.7548
 30
0
 70
     0
  0
VERTEX
  8
LAYER1
 10
4.9444
 20
9.7548
 30
0
 70
     0
  0
VERTEX
  8
LAYER1
 10
4.9477
 20
9.7682
 30
0
 70
     0
  0
VERTEX
  8
LAYER1
 10
4.9567
 20
9.7793
 30
0
 70
     0
  0
VERTEX
  8
LAYER1
 10
4.97
 20
9.7867
 30
0
 70
     0
  0
VERTEX
  8
LAYER1
 10
4.9861
 20
9.7895
 30
0
 70
     0
  0
VERTEX
  8
LAYER1
 10
4.9861
 20
9.7895
 30
0
 70
     0
  0
VERTEX
  8
LAYER1
 10
5.0023
 20
9.7867
 30
0
 70
     0
  0
VERTEX
  8
LAYER1
 10
5.0155
 20
9.7793
 30
0
 70
     0
  0
VERTEX
  8
LAYER1
 10
5.0245
 20
9.7682
 30
0
 70
     0
  0
VERTEX
  8
LAYER1
 10
5.0278
 20
9.7548
 30
0
 70
     0
  0
SEQEND
  0
POLYLINE
  8
LAYER1
  6
CONTINUOUS
 62
     7
 66
     1
 70
     1
 40
0.001
 41
0.001
  0
VERTEX
  8
LAYER1
 10
5.5694
 20
9.7548
 30
0
 70
     0
  0
VERTEX
  8
LAYER1
 10
5.5661
 20
9.7413
 30
0
 70
     0
  0
VERTEX
  8
LAYER1
 10
5.5572
 20
9.7303
 30
0
 70
     0
  0
VERTEX
  8
LAYER1
 10
5.5439
 20
9.7228
 30
0
 70
     0
  0
VERTEX
  8
LAYER1
 10
5.5278
 20
9.72
 30
0
 70
     0
  0
VERTEX
  8
LAYER1
 10
5.5278
 20
9.72
 30
0
 70
     0
  0
VERTEX
  8
LAYER1
 10
5.5116
 20
9.7228
 30
0
 70
     0
  0
VERTEX
  8
LAYER1
 10
5.4984
 20
9.7303
 30
0
 70
     0
  0
VERTEX
  8
LAYER1
 10
5.4894
 20
9.7413
 30
0
 70
     0
  0
VERTEX
  8
LAYER1
 10
5.4861
 20
9.7548
 30
0
 70
     0
  0
VERTEX
  8
LAYER1
 10
5.4861
 20
9.7548
 30
0
 70
     0
  0
VERTEX
  8
LAYER1
 10
5.4894
 20
9.7682
 30
0
 70
     0
  0
VERTEX
  8
LAYER1
 10
5.4984
 20
9.7793
 30
0
 70
     0
  0
VERTEX
  8
LAYER1
 10
5.5116
 20
9.7867
 30
0
 70
     0
  0
VERTEX
  8
LAYER1
 10
5.5278
 20
9.7895
 30
0
 70
     0
  0
VERTEX
  8
LAYER1
 10
5.5278
 20
9.7895
 30
0
 70
     0
  0
VERTEX
  8
LAYER1
 10
5.5439
 20
9.7867
 30
0
 70
     0
  0
VERTEX
  8
LAYER1
 10
5.5572
 20
9.7793
 30
0
 70
     0
  0
VERTEX
  8
LAYER1
 10
5.5661
 20
9.7682
 30
0
 70
     0
  0
VERTEX
  8
LAYER1
 10
5.5694
 20
9.7548
 30
0
 70
     0
  0
SEQEND
  0
POLYLINE
  8
LAYER1
  6
CONTINUOUS
 62
     7
 66
     1
 70
     1
 40
0.001
 41
0.001
  0
VERTEX
  8
LAYER1
 10
4.8472
 20
10.0048
 30
0
 70
     0
  0
VERTEX
  8
LAYER1
 10
4.8439
 20
9.9913
 30
0
 70
     0
  0
VERTEX
  8
LAYER1
 10
4.835
 20
9.9803
 30
0
 70
     0
  0
VERTEX
  8
LAYER1
 10
4.8217
 20
9.9728
 30
0
 70
     0
  0
VERTEX
  8
LAYER1
 10
4.8056
 20
9.97
 30
0
 70
     0
  0
VERTEX
  8
LAYER1
 10
4.8056
 20
9.97
 30
0
 70
     0
  0
VERTEX
  8
LAYER1
 10
4.7894
 20
9.9728
 30
0
 70
     0
  0
VERTEX
  8
LAYER1
 10
4.7761
 20
9.9803
 30
0
 70
     0
  0
VERTEX
  8
LAYER1
 10
4.7672
 20
9.9913
 30
0
 70
     0
  0
VERTEX
  8
LAYER1
 10
4.7639
 20
10.0048
 30
0
 70
     0
  0
VERTEX
  8
LAYER1
 10
4.7639
 20
10.0048
 30
0
 70
     0
  0
VERTEX
  8
LAYER1
 10
4.7672
 20
10.0182
 30
0
 70
     0
  0
VERTEX
  8
LAYER1
 10
4.7761
 20
10.0293
 30
0
 70
     0
  0
VERTEX
  8
LAYER1
 10
4.7894
 20
10.0367
 30
0
 70
     0
  0
VERTEX
  8
LAYER1
 10
4.8056
 20
10.0395
 30
0
 70
     0
  0
VERTEX
  8
LAYER1
 10
4.8056
 20
10.0395
 30
0
 70
     0
  0
VERTEX
  8
LAYER1
 10
4.8217
 20
10.0367
 30
0
 70
     0
  0
VERTEX
  8
LAYER1
 10
4.835
 20
10.0293
 30
0
 70
     0
  0
VERTEX
  8
LAYER1
 10
4.8439
 20
10.0182
 30
0
 70
     0
  0
VERTEX
  8
LAYER1
 10
4.8472
 20
10.0048
 30
0
 70
     0
  0
SEQEND
  0
POLYLINE
  8
LAYER1
  6
CONTINUOUS
 62
     7
 66
     1
 70
     1
 40
0.001
 41
0.001
  0
VERTEX
  8
LAYER1
 10
5.7361
 20
10.0048
 30
0
 70
     0
  0
VERTEX
  8
LAYER1
 10
5.7328
 20
9.9913
 30
0
 70
     0
  0
VERTEX
  8
LAYER1
 10
5.7238
 20
9.9803
 30
0
 70
     0
  0
VERTEX
  8
LAYER1
 10
5.7106
 20
9.9728
 30
0
 70
     0
  0
VERTEX
  8
LAYER1
 10
5.6944
 20
9.97
 30
0
 70
     0
  0
VERTEX
  8
LAYER1
 10
5.6944
 20
9.97
 30
0
 70
     0
  0
VERTEX
  8
LAYER1
 10
5.6783
 20
9.9728
 30
0
 70
     0
  0
VERTEX
  8
LAYER1
 10
5.665
 20
9.9803
 30
0
 70
     0
  0
VERTEX
  8
LAYER1
 10
5.6561
 20
9.9913
 30
0
 70
     0
  0
VERTEX
  8
LAYER1
 10
5.6528
 20
10.0048
 30
0
 70
     0
  0
VERTEX
  8
LAYER1
 10
5.6528
 20
10.0048
 30
0
 70
     0
  0
VERTEX
  8
LAYER1
 10
5.6561
 20
10.0182
 30
0
 70
     0
  0
VERTEX
  8
LAYER1
 10
5.665
 20
10.0293
 30
0
 70
     0
  0
VERTEX
  8
LAYER1
 10
5.6783
 20
10.0367
 30
0
 70
     0
  0
VERTEX
  8
LAYER1
 10
5.6944
 20
10.0395
 30
0
 70
     0
  0
VERTEX
  8
LAYER1
 10
5.6944
 20
10.0395
 30
0
 70
     0
  0
VERTEX
  8
LAYER1
 10
5.7106
 20
10.0367
 30
0
 70
     0
  0
VERTEX
  8
LAYER1
 10
5.7238
 20
10.0293
 30
0
 70
     0
  0
VERTEX
  8
LAYER1
 10
5.7328
 20
10.0182
 30
0
 70
     0
  0
VERTEX
  8
LAYER1
 10
5.7361
 20
10.0048
 30
0
 70
     0
  0
SEQEND
  0
LINE
  8
LAYER1
  6
CONTINUOUS
 62
     7
 10
4.75
 20
9.7756
 30
0
 11
4.7639
 21
10.0117
 31
0
  0
LINE
  8
LAYER1
  6
CONTINUOUS
 62
     7
 10
5.5694
 20
9.7339
 30
0
 11
5.7083
 21
9.9978
 31
0
  0
LINE
  8
LAYER1
  6
CONTINUOUS
 62
     7
 10
4.7917
 20
10.0395
 30
0
 11
5.1528
 21
10.0395
 31
0
  0
ENDBLK
  8
LAYER1
  0
BLOCK
  8
LAYER1
  2
Group5
 70
     0
 10
0
 20
0
 30
0
  0
LINE
  8
LAYER1
  6
CONTINUOUS
 62
     7
 10
3.5139
 20
7.5534
 30
0
 11
3.5139
 21
8.2617
 31
0
  0
LINE
  8
LAYER1
  6
CONTINUOUS
 62
     7
 10
4.0278
 20
7.5534
 30
0
 11
4.0278
 21
8.2617
 31
0
  0
POLYLINE
  8
LAYER1
  6
CONTINUOUS
 62
     7
 66
     1
 70
     1
 40
0.001
 41
0.001
  0
VERTEX
  8
LAYER1
 10
4.0417
 20
8.2409
 30
0
 70
     0
  0
VERTEX
  8
LAYER1
 10
4.0363
 20
8.22
 30
0
 70
     0
  0
VERTEX
  8
LAYER1
 10
4.0208
 20
8.2005
 30
0
 70
     0
  0
VERTEX
  8
LAYER1
 10
3.9963
 20
8.1828
 30
0
 70
     0
  0
VERTEX
  8
LAYER1
 10
3.964
 20
8.1674
 30
0
 70
     0
  0
VERTEX
  8
LAYER1
 10
3.9249
 20
8.1546
 30
0
 70
     0
  0
VERTEX
  8
LAYER1
 10
3.8801
 20
8.145
 30
0
 70
     0
  0
VERTEX
  8
LAYER1
 10
3.8307
 20
8.1389
 30
0
 70
     0
  0
VERTEX
  8
LAYER1
 10
3.7778
 20
8.1367
 30
0
 70
     0
  0
VERTEX
  8
LAYER1
 10
3.7778
 20
8.1367
 30
0
 70
     0
  0
VERTEX
  8
LAYER1
 10
3.7249
 20
8.1389
 30
0
 70
     0
  0
VERTEX
  8
LAYER1
 10
3.6755
 20
8.145
 30
0
 70
     0
  0
VERTEX
  8
LAYER1
 10
3.6307
 20
8.1546
 30
0
 70
     0
  0
VERTEX
  8
LAYER1
 10
3.5915
 20
8.1674
 30
0
 70
     0
  0
VERTEX
  8
LAYER1
 10
3.5592
 20
8.1828
 30
0
 70
     0
  0
VERTEX
  8
LAYER1
 10
3.5348
 20
8.2005
 30
0
 70
     0
  0
VERTEX
  8
LAYER1
 10
3.5193
 20
8.22
 30
0
 70
     0
  0
VERTEX
  8
LAYER1
 10
3.5139
 20
8.2409
 30
0
 70
     0
  0
VERTEX
  8
LAYER1
 10
3.5139
 20
8.2409
 30
0
 70
     0
  0
VERTEX
  8
LAYER1
 10
3.5193
 20
8.2618
 30
0
 70
     0
  0
VERTEX
  8
LAYER1
 10
3.5348
 20
8.2813
 30
0
 70
     0
  0
VERTEX
  8
LAYER1
 10
3.5592
 20
8.2989
 30
0
 70
     0
  0
VERTEX
  8
LAYER1
 10
3.5915
 20
8.3144
 30
0
 70
     0
  0
VERTEX
  8
LAYER1
 10
3.6307
 20
8.3271
 30
0
 70
     0
  0
VERTEX
  8
LAYER1
 10
3.6755
 20
8.3368
 30
0
 70
     0
  0
VERTEX
  8
LAYER1
 10
3.7249
 20
8.3429
 30
0
 70
     0
  0
VERTEX
  8
LAYER1
 10
3.7778
 20
8.345
 30
0
 70
     0
  0
VERTEX
  8
LAYER1
 10
3.7778
 20
8.345
 30
0
 70
     0
  0
VERTEX
  8
LAYER1
 10
3.8307
 20
8.3429
 30
0
 70
     0
  0
VERTEX
  8
LAYER1
 10
3.8801
 20
8.3368
 30
0
 70
     0
  0
VERTEX
  8
LAYER1
 10
3.9249
 20
8.3271
 30
0
 70
     0
  0
VERTEX
  8
LAYER1
 10
3.964
 20
8.3144
 30
0
 70
     0
  0
VERTEX
  8
LAYER1
 10
3.9963
 20
8.2989
 30
0
 70
     0
  0
VERTEX
  8
LAYER1
 10
4.0208
 20
8.2813
 30
0
 70
     0
  0
VERTEX
  8
LAYER1
 10
4.0363
 20
8.2618
 30
0
 70
     0
  0
VERTEX
  8
LAYER1
 10
4.0417
 20
8.2409
 30
0
 70
     0
  0
SEQEND
  0
POLYLINE
  8
LAYER1
  6
CONTINUOUS
 62
     7
 66
     1
 70
     0
 40
0.001
 41
0.001
  0
VERTEX
  8
LAYER1
 10
4.0278
 20
7.5534
 30
0
 70
     0
  0
VERTEX
  8
LAYER1
 10
4.0278
 20
7.5534
 30
0
 70
     0
  0
VERTEX
  8
LAYER1
 10
4.0278
 20
7.5395
 30
0
 70
     0
  0
VERTEX
  8
LAYER1
 10
4.0139
 20
7.5117
 30
0
 70
     0
  0
VERTEX
  8
LAYER1
 10
4
 20
7.5117
 30
0
 70
     0
  0
VERTEX
  8
LAYER1
 10
3.9583
 20
7.4839
 30
0
 70
     0
  0
VERTEX
  8
LAYER1
 10
3.9444
 20
7.4839
 30
0
 70
     0
  0
VERTEX
  8
LAYER1
 10
3.9167
 20
7.47
 30
0
 70
     0
  0
VERTEX
  8
LAYER1
 10
3.8889
 20
7.47
 30
0
 70
     0
  0
VERTEX
  8
LAYER1
 10
3.8333
 20
7.4562
 30
0
 70
     0
  0
VERTEX
  8
LAYER1
 10
3.7917
 20
7.4562
 30
0
 70
     0
  0
VERTEX
  8
LAYER1
 10
3.7639
 20
7.4562
 30
0
 70
     0
  0
VERTEX
  8
LAYER1
 10
3.7222
 20
7.4562
 30
0
 70
     0
  0
VERTEX
  8
LAYER1
 10
3.625
 20
7.47
 30
0
 70
     0
  0
VERTEX
  8
LAYER1
 10
3.5833
 20
7.4839
 30
0
 70
     0
  0
VERTEX
  8
LAYER1
 10
3.5694
 20
7.4839
 30
0
 70
     0
  0
VERTEX
  8
LAYER1
 10
3.5278
 20
7.5117
 30
0
 70
     0
  0
VERTEX
  8
LAYER1
 10
3.5139
 20
7.5256
 30
0
 70
     0
  0
VERTEX
  8
LAYER1
 10
3.5139
 20
7.5395
 30
0
 70
     0
  0
VERTEX
  8
LAYER1
 10
3.5139
 20
7.5534
 30
0
 70
     0
  0
SEQEND
  0
POLYLINE
  8
LAYER1
  6
CONTINUOUS
 62
     7
 66
     1
 70
     0
 40
0.001
 41
0.001
  0
VERTEX
  8
LAYER1
 10
4.0139
 20
8.1923
 30
0
 70
     0
  0
VERTEX
  8
LAYER1
 10
4.0139
 20
8.1923
 30
0
 70
     0
  0
VERTEX
  8
LAYER1
 10
4
 20
8.1784
 30
0
 70
     0
  0
VERTEX
  8
LAYER1
 10
3.9861
 20
8.1645
 30
0
 70
     0
  0
VERTEX
  8
LAYER1
 10
3.9583
 20
8.1506
 30
0
 70
     0
  0
VERTEX
  8
LAYER1
 10
3.9444
 20
8.1506
 30
0
 70
     0
  0
VERTEX
  8
LAYER1
 10
3.9167
 20
8.1367
 30
0
 70
     0
  0
VERTEX
  8
LAYER1
 10
3.8889
 20
8.1367
 30
0
 70
     0
  0
VERTEX
  8
LAYER1
 10
3.8333
 20
8.1228
 30
0
 70
     0
  0
VERTEX
  8
LAYER1
 10
3.7917
 20
8.1228
 30
0
 70
     0
  0
VERTEX
  8
LAYER1
 10
3.7639
 20
8.1228
 30
0
 70
     0
  0
VERTEX
  8
LAYER1
 10
3.7222
 20
8.1228
 30
0
 70
     0
  0
VERTEX
  8
LAYER1
 10
3.625
 20
8.1367
 30
0
 70
     0
  0
VERTEX
  8
LAYER1
 10
3.5833
 20
8.1506
 30
0
 70
     0
  0
VERTEX
  8
LAYER1
 10
3.5694
 20
8.1506
 30
0
 70
     0
  0
VERTEX
  8
LAYER1
 10
3.5278
 20
8.1784
 30
0
 70
     0
  0
VERTEX
  8
LAYER1
 10
3.5139
 20
8.1923
 30
0
 70
     0
  0
SEQEND
  0
POLYLINE
  8
LAYER1
  6
CONTINUOUS
 62
     7
 66
     1
 70
     0
 40
0.001
 41
0.001
  0
VERTEX
  8
LAYER1
 10
4.0139
 20
8.1367
 30
0
 70
     0
  0
VERTEX
  8
LAYER1
 10
4.0139
 20
8.1367
 30
0
 70
     0
  0
VERTEX
  8
LAYER1
 10
3.9861
 20
8.1228
 30
0
 70
     0
  0
VERTEX
  8
LAYER1
 10
3.9722
 20
8.1089
 30
0
 70
     0
  0
VERTEX
  8
LAYER1
 10
3.9583
 20
8.095
 30
0
 70
     0
  0
VERTEX
  8
LAYER1
 10
3.9444
 20
8.095
 30
0
 70
     0
  0
VERTEX
  8
LAYER1
 10
3.9167
 20
8.0812
 30
0
 70
     0
  0
VERTEX
  8
LAYER1
 10
3.8889
 20
8.0812
 30
0
 70
     0
  0
VERTEX
  8
LAYER1
 10
3.8333
 20
8.0673
 30
0
 70
     0
  0
VERTEX
  8
LAYER1
 10
3.7917
 20
8.0673
 30
0
 70
     0
  0
VERTEX
  8
LAYER1
 10
3.7639
 20
8.0673
 30
0
 70
     0
  0
VERTEX
  8
LAYER1
 10
3.7222
 20
8.0673
 30
0
 70
     0
  0
VERTEX
  8
LAYER1
 10
3.625
 20
8.0812
 30
0
 70
     0
  0
VERTEX
  8
LAYER1
 10
3.5833
 20
8.095
 30
0
 70
     0
  0
VERTEX
  8
LAYER1
 10
3.5694
 20
8.095
 30
0
 70
     0
  0
VERTEX
  8
LAYER1
 10
3.5278
 20
8.1228
 30
0
 70
     0
  0
VERTEX
  8
LAYER1
 10
3.5139
 20
8.1367
 30
0
 70
     0
  0
VERTEX
  8
LAYER1
 10
3.5139
 20
8.1506
 30
0
 70
     0
  0
VERTEX
  8
LAYER1
 10
3.5139
 20
8.1645
 30
0
 70
     0
  0
VERTEX
  8
LAYER1
 10
3.5139
 20
8.1645
 30
0
 70
     0
  0
SEQEND
  0
POLYLINE
  8
LAYER1
  6
CONTINUOUS
 62
     7
 66
     1
 70
     0
 40
0.001
 41
0.001
  0
VERTEX
  8
LAYER1
 10
4.0278
 20
8.1228
 30
0
 70
     0
  0
VERTEX
  8
LAYER1
 10
4.0278
 20
8.1089
 30
0
 70
     0
  0
VERTEX
  8
LAYER1
 10
4.0139
 20
8.0812
 30
0
 70
     0
  0
VERTEX
  8
LAYER1
 10
4
 20
8.0812
 30
0
 70
     0
  0
VERTEX
  8
LAYER1
 10
3.9583
 20
8.0534
 30
0
 70
     0
  0
VERTEX
  8
LAYER1
 10
3.9444
 20
8.0534
 30
0
 70
     0
  0
VERTEX
  8
LAYER1
 10
3.9167
 20
8.0395
 30
0
 70
     0
  0
VERTEX
  8
LAYER1
 10
3.8889
 20
8.0395
 30
0
 70
     0
  0
VERTEX
  8
LAYER1
 10
3.8333
 20
8.0256
 30
0
 70
     0
  0
VERTEX
  8
LAYER1
 10
3.7917
 20
8.0256
 30
0
 70
     0
  0
VERTEX
  8
LAYER1
 10
3.7639
 20
8.0256
 30
0
 70
     0
  0
VERTEX
  8
LAYER1
 10
3.7222
 20
8.0256
 30
0
 70
     0
  0
VERTEX
  8
LAYER1
 10
3.625
 20
8.0395
 30
0
 70
     0
  0
VERTEX
  8
LAYER1
 10
3.5833
 20
8.0534
 30
0
 70
     0
  0
VERTEX
  8
LAYER1
 10
3.5694
 20
8.0534
 30
0
 70
     0
  0
VERTEX
  8
LAYER1
 10
3.5278
 20
8.0812
 30
0
 70
     0
  0
VERTEX
  8
LAYER1
 10
3.5139
 20
8.095
 30
0
 70
     0
  0
VERTEX
  8
LAYER1
 10
3.5139
 20
8.1089
 30
0
 70
     0
  0
VERTEX
  8
LAYER1
 10
3.5139
 20
8.1228
 30
0
 70
     0
  0
VERTEX
  8
LAYER1
 10
3.5139
 20
8.1367
 30
0
 70
     0
  0
SEQEND
  0
ENDBLK
  8
LAYER1
  0
BLOCK
  8
LAYER1
  2
Group6
 70
     0
 10
0
 20
0
 30
0
  0
POLYLINE
  8
LAYER1
  6
CONTINUOUS
 62
     7
 66
     1
 70
     0
 40
0.001
 41
0.001
  0
VERTEX
  8
LAYER1
 10
4.9028
 20
7.5395
 30
0
 70
     0
  0
VERTEX
  8
LAYER1
 10
4.8582
 20
7.5452
 30
0
 70
     0
  0
VERTEX
  8
LAYER1
 10
4.8166
 20
7.5615
 30
0
 70
     0
  0
VERTEX
  8
LAYER1
 10
4.7789
 20
7.5872
 30
0
 70
     0
  0
VERTEX
  8
LAYER1
 10
4.746
 20
7.6212
 30
0
 70
     0
  0
VERTEX
  8
LAYER1
 10
4.7187
 20
7.6624
 30
0
 70
     0
  0
VERTEX
  8
LAYER1
 10
4.6981
 20
7.7096
 30
0
 70
     0
  0
VERTEX
  8
LAYER1
 10
4.6851
 20
7.7616
 30
0
 70
     0
  0
VERTEX
  8
LAYER1
 10
4.6806
 20
7.8173
 30
0
 70
     0
  0
VERTEX
  8
LAYER1
 10
4.6806
 20
7.8173
 30
0
 70
     0
  0
VERTEX
  8
LAYER1
 10
4.6851
 20
7.873
 30
0
 70
     0
  0
VERTEX
  8
LAYER1
 10
4.6981
 20
7.925
 30
0
 70
     0
  0
VERTEX
  8
LAYER1
 10
4.7187
 20
7.9721
 30
0
 70
     0
  0
VERTEX
  8
LAYER1
 10
4.746
 20
8.0133
 30
0
 70
     0
  0
VERTEX
  8
LAYER1
 10
4.7789
 20
8.0473
 30
0
 70
     0
  0
VERTEX
  8
LAYER1
 10
4.8166
 20
8.0731
 30
0
 70
     0
  0
VERTEX
  8
LAYER1
 10
4.8582
 20
8.0894
 30
0
 70
     0
  0
VERTEX
  8
LAYER1
 10
4.9028
 20
8.095
 30
0
 70
     0
  0
SEQEND
  0
POLYLINE
  8
LAYER1
  6
CONTINUOUS
 62
     7
 66
     1
 70
     0
 40
0.001
 41
0.001
  0
VERTEX
  8
LAYER1
 10
5.3611
 20
8.095
 30
0
 70
     0
  0
VERTEX
  8
LAYER1
 10
5.3889
 20
8.095
 30
0
 70
     0
  0
VERTEX
  8
LAYER1
 10
5.4444
 20
8.0812
 30
0
 70
     0
  0
VERTEX
  8
LAYER1
 10
5.5
 20
8.0673
 30
0
 70
     0
  0
VERTEX
  8
LAYER1
 10
5.5417
 20
8.0395
 30
0
 70
     0
  0
VERTEX
  8
LAYER1
 10
5.5556
 20
8.0256
 30
0
 70
     0
  0
SEQEND
  0
LINE
  8
LAYER1
  6
CONTINUOUS
 62
     7
 10
4.9028
 20
8.095
 30
0
 11
5.3611
 21
8.095
 31
0
  0
POLYLINE
  8
LAYER1
  6
CONTINUOUS
 62
     7
 66
     1
 70
     0
 40
0.001
 41
0.001
  0
VERTEX
  8
LAYER1
 10
5.5556
 20
7.6089
 30
0
 70
     0
  0
VERTEX
  8
LAYER1
 10
5.5417
 20
7.595
 30
0
 70
     0
  0
VERTEX
  8
LAYER1
 10
5.5
 20
7.5673
 30
0
 70
     0
  0
VERTEX
  8
LAYER1
 10
5.4444
 20
7.5534
 30
0
 70
     0
  0
VERTEX
  8
LAYER1
 10
5.3889
 20
7.5395
 30
0
 70
     0
  0
VERTEX
  8
LAYER1
 10
5.3611
 20
7.5395
 30
0
 70
     0
  0
SEQEND
  0
LINE
  8
LAYER1
  6
CONTINUOUS
 62
     7
 10
4.9028
 20
7.5395
 30
0
 11
5.3611
 21
7.5395
 31
0
  0
POLYLINE
  8
LAYER1
  6
CONTINUOUS
 62
     7
 66
     1
 70
     0
 40
0.001
 41
0.001
  0
VERTEX
  8
LAYER1
 10
5.75
 20
7.8867
 30
0
 70
     0
  0
VERTEX
  8
LAYER1
 10
5.75
 20
7.8728
 30
0
 70
     0
  0
VERTEX
  8
LAYER1
 10
5.7639
 20
7.8728
 30
0
 70
     0
  0
VERTEX
  8
LAYER1
 10
5.7639
 20
7.8728
 30
0
 70
     0
  0
VERTEX
  8
LAYER1
 10
5.7778
 20
7.8589
 30
0
 70
     0
  0
VERTEX
  8
LAYER1
 10
5.7778
 20
7.8312
 30
0
 70
     0
  0
VERTEX
  8
LAYER1
 10
5.7778
 20
7.8173
 30
0
 70
     0
  0
VERTEX
  8
LAYER1
 10
5.7778
 20
7.8034
 30
0
 70
     0
  0
VERTEX
  8
LAYER1
 10
5.7778
 20
7.7756
 30
0
 70
     0
  0
VERTEX
  8
LAYER1
 10
5.7639
 20
7.7617
 30
0
 70
     0
  0
VERTEX
  8
LAYER1
 10
5.75
 20
7.7617
 30
0
 70
     0
  0
SEQEND
  0
LINE
  8
LAYER1
  6
CONTINUOUS
 62
     7
 10
5.75
 20
7.8867
 30
0
 11
5.5556
 21
8.0256
 31
0
  0
ENDBLK
  8
LAYER1
  0
BLOCK
  8
LAYER1
  2
Group7
 70
     0
 10
0
 20
0
 30
0
  0
LINE
  8
LAYER1
  6
CONTINUOUS
 62
     7
 10
5.75
 20
7.7617
 30
0
 11
5.5556
 21
7.6089
 31
0
  0
POLYLINE
  8
LAYER1
  6
CONTINUOUS
 62
     7
 66
     1
 70
     0
 40
0.001
 41
0.001
  0
VERTEX
  8
LAYER1
 10
0.4028
 20
5.8589
 30
0
 70
     0
  0
VERTEX
  8
LAYER1
 10
0.4058
 20
5.8759
 30
0
 70
     0
  0
VERTEX
  8
LAYER1
 10
0.4149
 20
5.8923
 30
0
 70
     0
  0
VERTEX
  8
LAYER1
 10
0.4295
 20
5.9083
 30
0
 70
     0
  0
VERTEX
  8
LAYER1
 10
0.4495
 20
5.9235
 30
0
 70
     0
  0
VERTEX
  8
LAYER1
 10
0.5042
 20
5.9518
 30
0
 70
     0
  0
VERTEX
  8
LAYER1
 10
0.5765
 20
5.9765
 30
0
 70
     0
  0
VERTEX
  8
LAYER1
 10
0.664
 20
5.997
 30
0
 70
     0
  0
VERTEX
  8
LAYER1
 10
0.7642
 20
6.0124
 30
0
 70
     0
  0
VERTEX
  8
LAYER1
 10
0.8747
 20
6.0222
 30
0
 70
     0
  0
VERTEX
  8
LAYER1
 10
0.9931
 20
6.0256
 30
0
 70
     0
  0
SEQEND
  0
POLYLINE
  8
LAYER1
  6
CONTINUOUS
 62
     7
 66
     1
 70
     0
 40
0.001
 41
0.001
  0
VERTEX
  8
LAYER1
 10
1.3889
 20
6.2825
 30
0
 70
     0
  0
VERTEX
  8
LAYER1
 10
1.3811
 20
6.2283
 30
0
 70
     0
  0
VERTEX
  8
LAYER1
 10
1.3587
 20
6.1775
 30
0
 70
     0
  0
VERTEX
  8
LAYER1
 10
1.3233
 20
6.1316
 30
0
 70
     0
  0
VERTEX
  8
LAYER1
 10
1.2765
 20
6.0914
 30
0
 70
     0
  0
VERTEX
  8
LAYER1
 10
1.2199
 20
6.0582
 30
0
 70
     0
  0
VERTEX
  8
LAYER1
 10
1.155
 20
6.0331
 30
0
 70
     0
  0
VERTEX
  8
LAYER1
 10
1.0835
 20
6.0173
 30
0
 70
     0
  0
VERTEX
  8
LAYER1
 10
1.0069
 20
6.0117
 30
0
 70
     0
  0
SEQEND
  0
POLYLINE
  8
LAYER1
  6
CONTINUOUS
 62
     7
 66
     1
 70
     0
 40
0.001
 41
0.001
  0
VERTEX
  8
LAYER1
 10
0.4028
 20
5.8589
 30
0
 70
     0
  0
VERTEX
  8
LAYER1
 10
0.4103
 20
6.0477
 30
0
 70
     0
  0
VERTEX
  8
LAYER1
 10
0.4327
 20
6.2114
 30
0
 70
     0
  0
VERTEX
  8
LAYER1
 10
0.4701
 20
6.3498
 30
0
 70
     0
  0
VERTEX
  8
LAYER1
 10
0.5226
 20
6.4631
 30
0
 70
     0
  0
VERTEX
  8
LAYER1
 10
0.5899
 20
6.5512
 30
0
 70
     0
  0
VERTEX
  8
LAYER1
 10
0.6723
 20
6.6141
 30
0
 70
     0
  0
VERTEX
  8
LAYER1
 10
0.7696
 20
6.6519
 30
0
 70
     0
  0
VERTEX
  8
LAYER1
 10
0.8819
 20
6.6645
 30
0
 70
     0
  0
VERTEX
  8
LAYER1
 10
0.8819
 20
6.6645
 30
0
 70
     0
  0
VERTEX
  8
LAYER1
 10
0.9942
 20
6.6586
 30
0
 70
     0
  0
VERTEX
  8
LAYER1
 10
1.0916
 20
6.641
 30
0
 70
     0
  0
VERTEX
  8
LAYER1
 10
1.1739
 20
6.6118
 30
0
 70
     0
  0
VERTEX
  8
LAYER1
 10
1.2413
 20
6.5707
 30
0
 70
     0
  0
VERTEX
  8
LAYER1
 10
1.2937
 20
6.518
 30
0
 70
     0
  0
VERTEX
  8
LAYER1
 10
1.3312
 20
6.4535
 30
0
 70
     0
  0
VERTEX
  8
LAYER1
 10
1.3536
 20
6.3774
 30
0
 70
     0
  0
VERTEX
  8
LAYER1
 10
1.3611
 20
6.2895
 30
0
 70
     0
  0
SEQEND
  0
ENDBLK
  8
LAYER1
  0
BLOCK
  8
LAYER1
  2
Group8
 70
     0
 10
0
 20
0
 30
0
  0
LINE
  8
LAYER1
  6
CONTINUOUS
 62
     7
 10
2.125
 20
5.9284
 30
0
 11
2.125
 21
6.6367
 31
0
  0
LINE
  8
LAYER1
  6
CONTINUOUS
 62
     7
 10
2.6389
 20
5.9284
 30
0
 11
2.6389
 21
6.6367
 31
0
  0
POLYLINE
  8
LAYER1
  6
CONTINUOUS
 62
     7
 66
     1
 70
     1
 40
0.001
 41
0.001
  0
VERTEX
  8
LAYER1
 10
2.6528
 20
6.6159
 30
0
 70
     0
  0
VERTEX
  8
LAYER1
 10
2.6474
 20
6.595
 30
0
 70
     0
  0
VERTEX
  8
LAYER1
 10
2.6319
 20
6.5755
 30
0
 70
     0
  0
VERTEX
  8
LAYER1
 10
2.6074
 20
6.5578
 30
0
 70
     0
  0
VERTEX
  8
LAYER1
 10
2.5751
 20
6.5424
 30
0
 70
     0
  0
VERTEX
  8
LAYER1
 10
2.536
 20
6.5296
 30
0
 70
     0
  0
VERTEX
  8
LAYER1
 10
2.4912
 20
6.52
 30
0
 70
     0
  0
VERTEX
  8
LAYER1
 10
2.4418
 20
6.5139
 30
0
 70
     0
  0
VERTEX
  8
LAYER1
 10
2.3889
 20
6.5117
 30
0
 70
     0
  0
VERTEX
  8
LAYER1
 10
2.3889
 20
6.5117
 30
0
 70
     0
  0
VERTEX
  8
LAYER1
 10
2.336
 20
6.5139
 30
0
 70
     0
  0
VERTEX
  8
LAYER1
 10
2.2866
 20
6.52
 30
0
 70
     0
  0
VERTEX
  8
LAYER1
 10
2.2418
 20
6.5296
 30
0
 70
     0
  0
VERTEX
  8
LAYER1
 10
2.2027
 20
6.5424
 30
0
 70
     0
  0
VERTEX
  8
LAYER1
 10
2.1703
 20
6.5578
 30
0
 70
     0
  0
VERTEX
  8
LAYER1
 10
2.1459
 20
6.5755
 30
0
 70
     0
  0
VERTEX
  8
LAYER1
 10
2.1304
 20
6.595
 30
0
 70
     0
  0
VERTEX
  8
LAYER1
 10
2.125
 20
6.6159
 30
0
 70
     0
  0
VERTEX
  8
LAYER1
 10
2.125
 20
6.6159
 30
0
 70
     0
  0
VERTEX
  8
LAYER1
 10
2.1304
 20
6.6368
 30
0
 70
     0
  0
VERTEX
  8
LAYER1
 10
2.1459
 20
6.6563
 30
0
 70
     0
  0
VERTEX
  8
LAYER1
 10
2.1703
 20
6.6739
 30
0
 70
     0
  0
VERTEX
  8
LAYER1
 10
2.2027
 20
6.6894
 30
0
 70
     0
  0
VERTEX
  8
LAYER1
 10
2.2418
 20
6.7021
 30
0
 70
     0
  0
VERTEX
  8
LAYER1
 10
2.2866
 20
6.7118
 30
0
 70
     0
  0
VERTEX
  8
LAYER1
 10
2.336
 20
6.7179
 30
0
 70
     0
  0
VERTEX
  8
LAYER1
 10
2.3889
 20
6.72
 30
0
 70
     0
  0
VERTEX
  8
LAYER1
 10
2.3889
 20
6.72
 30
0
 70
     0
  0
VERTEX
  8
LAYER1
 10
2.4418
 20
6.7179
 30
0
 70
     0
  0
VERTEX
  8
LAYER1
 10
2.4912
 20
6.7118
 30
0
 70
     0
  0
VERTEX
  8
LAYER1
 10
2.536
 20
6.7021
 30
0
 70
     0
  0
VERTEX
  8
LAYER1
 10
2.5751
 20
6.6894
 30
0
 70
     0
  0
VERTEX
  8
LAYER1
 10
2.6074
 20
6.6739
 30
0
 70
     0
  0
VERTEX
  8
LAYER1
 10
2.6319
 20
6.6563
 30
0
 70
     0
  0
VERTEX
  8
LAYER1
 10
2.6474
 20
6.6368
 30
0
 70
     0
  0
VERTEX
  8
LAYER1
 10
2.6528
 20
6.6159
 30
0
 70
     0
  0
SEQEND
  0
POLYLINE
  8
LAYER1
  6
CONTINUOUS
 62
     7
 66
     1
 70
     0
 40
0.001
 41
0.001
  0
VERTEX
  8
LAYER1
 10
2.6389
 20
5.9284
 30
0
 70
     0
  0
VERTEX
  8
LAYER1
 10
2.6389
 20
5.9284
 30
0
 70
     0
  0
VERTEX
  8
LAYER1
 10
2.6389
 20
5.9145
 30
0
 70
     0
  0
VERTEX
  8
LAYER1
 10
2.625
 20
5.8867
 30
0
 70
     0
  0
VERTEX
  8
LAYER1
 10
2.6111
 20
5.8867
 30
0
 70
     0
  0
VERTEX
  8
LAYER1
 10
2.5694
 20
5.8589
 30
0
 70
     0
  0
VERTEX
  8
LAYER1
 10
2.5556
 20
5.8589
 30
0
 70
     0
  0
VERTEX
  8
LAYER1
 10
2.5278
 20
5.845
 30
0
 70
     0
  0
VERTEX
  8
LAYER1
 10
2.5
 20
5.845
 30
0
 70
     0
  0
VERTEX
  8
LAYER1
 10
2.4444
 20
5.8312
 30
0
 70
     0
  0
VERTEX
  8
LAYER1
 10
2.4028
 20
5.8312
 30
0
 70
     0
  0
VERTEX
  8
LAYER1
 10
2.375
 20
5.8312
 30
0
 70
     0
  0
VERTEX
  8
LAYER1
 10
2.3333
 20
5.8312
 30
0
 70
     0
  0
VERTEX
  8
LAYER1
 10
2.2361
 20
5.845
 30
0
 70
     0
  0
VERTEX
  8
LAYER1
 10
2.1944
 20
5.8589
 30
0
 70
     0
  0
VERTEX
  8
LAYER1
 10
2.1806
 20
5.8589
 30
0
 70
     0
  0
VERTEX
  8
LAYER1
 10
2.1389
 20
5.8867
 30
0
 70
     0
  0
VERTEX
  8
LAYER1
 10
2.125
 20
5.9006
 30
0
 70
     0
  0
VERTEX
  8
LAYER1
 10
2.125
 20
5.9145
 30
0
 70
     0
  0
VERTEX
  8
LAYER1
 10
2.125
 20
5.9284
 30
0
 70
     0
  0
SEQEND
  0
ENDBLK
  8
LAYER1
  0
BLOCK
  8
LAYER1
  2
Group9
 70
     0
 10
0
 20
0
 30
0
  0
LINE
  8
LAYER1
  6
CONTINUOUS
 62
     7
 10
4.9306
 20
6.5673
 30
0
 11
5.75
 21
6.5673
 31
0
  0
LINE
  8
LAYER1
  6
CONTINUOUS
 62
     7
 10
4.7222
 20
5.9423
 30
0
 11
5.5278
 21
5.9423
 31
0
  0
LINE
  8
LAYER1
  6
CONTINUOUS
 62
     7
 10
4.9306
 20
6.5673
 30
0
 11
4.7222
 21
5.9423
 31
0
  0
ENDBLK
  8
LAYER1
  0
BLOCK
  8
LAYER1
  2
Group10
 70
     0
 10
0
 20
0
 30
0
  0
LINE
  8
LAYER1
  6
CONTINUOUS
 62
     7
 10
0.3056
 20
3.0673
 30
0
 11
1.375
 21
3.0673
 31
0
  0
LINE
  8
LAYER1
  6
CONTINUOUS
 62
     7
 10
0.3056
 20
2.6923
 30
0
 11
1.375
 21
2.6923
 31
0
  0
POLYLINE
  8
LAYER1
  6
CONTINUOUS
 62
     7
 66
     1
 70
     0
 40
0.001
 41
0.001
  0
VERTEX
  8
LAYER1
 10
0.3056
 20
2.6923
 30
0
 70
     0
  0
VERTEX
  8
LAYER1
 10
0.3056
 20
2.6923
 30
0
 70
     0
  0
VERTEX
  8
LAYER1
 10
0.2917
 20
2.7062
 30
0
 70
     0
  0
VERTEX
  8
LAYER1
 10
0.25
 20
2.7617
 30
0
 70
     0
  0
VERTEX
  8
LAYER1
 10
0.2361
 20
2.7895
 30
0
 70
     0
  0
VERTEX
  8
LAYER1
 10
0.2222
 20
2.845
 30
0
 70
     0
  0
VERTEX
  8
LAYER1
 10
0.2222
 20
2.8728
 30
0
 70
     0
  0
VERTEX
  8
LAYER1
 10
0.2222
 20
2.9006
 30
0
 70
     0
  0
VERTEX
  8
LAYER1
 10
0.2361
 20
2.9562
 30
0
 70
     0
  0
VERTEX
  8
LAYER1
 10
0.25
 20
2.9839
 30
0
 70
     0
  0
VERTEX
  8
LAYER1
 10
0.2917
 20
3.0395
 30
0
 70
     0
  0
VERTEX
  8
LAYER1
 10
0.3056
 20
3.0534
 30
0
 70
     0
  0
VERTEX
  8
LAYER1
 10
0.3056
 20
3.0673
 30
0
 70
     0
  0
SEQEND
  0
POLYLINE
  8
LAYER1
  6
CONTINUOUS
 62
     7
 66
     1
 70
     0
 40
0.001
 41
0.001
  0
VERTEX
  8
LAYER1
 10
1.375
 20
2.6923
 30
0
 70
     0
  0
VERTEX
  8
LAYER1
 10
1.3611
 20
2.6923
 30
0
 70
     0
  0
VERTEX
  8
LAYER1
 10
1.3472
 20
2.7062
 30
0
 70
     0
  0
VERTEX
  8
LAYER1
 10
1.3194
 20
2.7478
 30
0
 70
     0
  0
VERTEX
  8
LAYER1
 10
1.3056
 20
2.7895
 30
0
 70
     0
  0
VERTEX
  8
LAYER1
 10
1.2917
 20
2.845
 30
0
 70
     0
  0
VERTEX
  8
LAYER1
 10
1.2917
 20
2.8728
 30
0
 70
     0
  0
VERTEX
  8
LAYER1
 10
1.2917
 20
2.9006
 30
0
 70
     0
  0
VERTEX
  8
LAYER1
 10
1.3056
 20
2.9562
 30
0
 70
     0
  0
VERTEX
  8
LAYER1
 10
1.3194
 20
2.9978
 30
0
 70
     0
  0
VERTEX
  8
LAYER1
 10
1.3472
 20
3.0395
 30
0
 70
     0
  0
VERTEX
  8
LAYER1
 10
1.3611
 20
3.0534
 30
0
 70
     0
  0
VERTEX
  8
LAYER1
 10
1.375
 20
3.0534
 30
0
 70
     0
  0
VERTEX
  8
LAYER1
 10
1.375
 20
3.0534
 30
0
 70
     0
  0
VERTEX
  8
LAYER1
 10
1.375
 20
3.0673
 30
0
 70
     0
  0
SEQEND
  0
ENDBLK
  8
LAYER1
  0
BLOCK
  8
LAYER1
  2
Group11
 70
     0
 10
0
 20
0
 30
0
  0
POLYLINE
  8
LAYER1
  6
CONTINUOUS
 62
     7
 66
     1
 70
     0
 40
0.001
 41
0.001
  0
VERTEX
  8
LAYER1
 10
3.7708
 20
2.8173
 30
0
 70
     0
  0
VERTEX
  8
LAYER1
 10
3.722
 20
2.8202
 30
0
 70
     0
  0
VERTEX
  8
LAYER1
 10
3.6832
 20
2.829
 30
0
 70
     0
  0
VERTEX
  8
LAYER1
 10
3.6543
 20
2.8436
 30
0
 70
     0
  0
VERTEX
  8
LAYER1
 10
3.6354
 20
2.8641
 30
0
 70
     0
  0
VERTEX
  8
LAYER1
 10
3.6265
 20
2.8905
 30
0
 70
     0
  0
VERTEX
  8
LAYER1
 10
3.6276
 20
2.9227
 30
0
 70
     0
  0
VERTEX
  8
LAYER1
 10
3.6387
 20
2.9608
 30
0
 70
     0
  0
VERTEX
  8
LAYER1
 10
3.6597
 20
3.0048
 30
0
 70
     0
  0
VERTEX
  8
LAYER1
 10
3.6597
 20
3.0048
 30
0
 70
     0
  0
VERTEX
  8
LAYER1
 10
3.6859
 20
3.0458
 30
0
 70
     0
  0
VERTEX
  8
LAYER1
 10
3.7122
 20
3.0751
 30
0
 70
     0
  0
VERTEX
  8
LAYER1
 10
3.7388
 20
3.0927
 30
0
 70
     0
  0
VERTEX
  8
LAYER1
 10
3.7656
 20
3.0985
 30
0
 70
     0
  0
VERTEX
  8
LAYER1
 10
3.7926
 20
3.0927
 30
0
 70
     0
  0
VERTEX
  8
LAYER1
 10
3.8199
 20
3.0751
 30
0
 70
     0
  0
VERTEX
  8
LAYER1
 10
3.8473
 20
3.0458
 30
0
 70
     0
  0
VERTEX
  8
LAYER1
 10
3.875
 20
3.0048
 30
0
 70
     0
  0
VERTEX
  8
LAYER1
 10
3.875
 20
3.0048
 30
0
 70
     0
  0
VERTEX
  8
LAYER1
 10
3.8977
 20
2.9608
 30
0
 70
     0
  0
VERTEX
  8
LAYER1
 10
3.9102
 20
2.9227
 30
0
 70
     0
  0
VERTEX
  8
LAYER1
 10
3.9124
 20
2.8905
 30
0
 70
     0
  0
VERTEX
  8
LAYER1
 10
3.9045
 20
2.8641
 30
0
 70
     0
  0
VERTEX
  8
LAYER1
 10
3.8864
 20
2.8436
 30
0
 70
     0
  0
VERTEX
  8
LAYER1
 10
3.8581
 20
2.829
 30
0
 70
     0
  0
VERTEX
  8
LAYER1
 10
3.8195
 20
2.8202
 30
0
 70
     0
  0
VERTEX
  8
LAYER1
 10
3.7708
 20
2.8173
 30
0
 70
     0
  0
SEQEND
  0
POLYLINE
  8
LAYER1
  6
CONTINUOUS
 62
     7
 66
     1
 70
     0
 40
0.001
 41
0.001
  0
VERTEX
  8
LAYER1
 10
3.7708
 20
2.8173
 30
0
 70
     0
  0
VERTEX
  8
LAYER1
 10
3.722
 20
2.8143
 30
0
 70
     0
  0
VERTEX
  8
LAYER1
 10
3.6832
 20
2.8056
 30
0
 70
     0
  0
VERTEX
  8
LAYER1
 10
3.6543
 20
2.7909
 30
0
 70
     0
  0
VERTEX
  8
LAYER1
 10
3.6354
 20
2.7704
 30
0
 70
     0
  0
VERTEX
  8
LAYER1
 10
3.6265
 20
2.744
 30
0
 70
     0
  0
VERTEX
  8
LAYER1
 10
3.6276
 20
2.7118
 30
0
 70
     0
  0
VERTEX
  8
LAYER1
 10
3.6387
 20
2.6737
 30
0
 70
     0
  0
VERTEX
  8
LAYER1
 10
3.6597
 20
2.6298
 30
0
 70
     0
  0
VERTEX
  8
LAYER1
 10
3.6597
 20
2.6298
 30
0
 70
     0
  0
VERTEX
  8
LAYER1
 10
3.6859
 20
2.5888
 30
0
 70
     0
  0
VERTEX
  8
LAYER1
 10
3.7122
 20
2.5595
 30
0
 70
     0
  0
VERTEX
  8
LAYER1
 10
3.7388
 20
2.5419
 30
0
 70
     0
  0
VERTEX
  8
LAYER1
 10
3.7656
 20
2.536
 30
0
 70
     0
  0
VERTEX
  8
LAYER1
 10
3.7926
 20
2.5419
 30
0
 70
     0
  0
VERTEX
  8
LAYER1
 10
3.8199
 20
2.5595
 30
0
 70
     0
  0
VERTEX
  8
LAYER1
 10
3.8473
 20
2.5888
 30
0
 70
     0
  0
VERTEX
  8
LAYER1
 10
3.875
 20
2.6298
 30
0
 70
     0
  0
VERTEX
  8
LAYER1
 10
3.875
 20
2.6298
 30
0
 70
     0
  0
VERTEX
  8
LAYER1
 10
3.8977
 20
2.6737
 30
0
 70
     0
  0
VERTEX
  8
LAYER1
 10
3.9102
 20
2.7118
 30
0
 70
     0
  0
VERTEX
  8
LAYER1
 10
3.9124
 20
2.744
 30
0
 70
     0
  0
VERTEX
  8
LAYER1
 10
3.9045
 20
2.7704
 30
0
 70
     0
  0
VERTEX
  8
LAYER1
 10
3.8864
 20
2.7909
 30
0
 70
     0
  0
VERTEX
  8
LAYER1
 10
3.8581
 20
2.8056
 30
0
 70
     0
  0
VERTEX
  8
LAYER1
 10
3.8195
 20
2.8143
 30
0
 70
     0
  0
VERTEX
  8
LAYER1
 10
3.7708
 20
2.8173
 30
0
 70
     0
  0
SEQEND
  0
ENDBLK
  8
LAYER1
  0
BLOCK
  8
LAYER1
  2
Group12
 70
     0
 10
0
 20
0
 30
0
  0
POLYLINE
  8
LAYER1
  6
CONTINUOUS
 62
     7
 66
     1
 70
     0
 40
0.001
 41
0.001
  0
VERTEX
  8
LAYER1
 10
0.6389
 20
1.1228
 30
0
 70
     0
  0
VERTEX
  8
LAYER1
 10
0.6428
 20
1.2563
 30
0
 70
     0
  0
VERTEX
  8
LAYER1
 10
0.6545
 20
1.372
 30
0
 70
     0
  0
VERTEX
  8
LAYER1
 10
0.674
 20
1.4698
 30
0
 70
     0
  0
VERTEX
  8
LAYER1
 10
0.7014
 20
1.5499
 30
0
 70
     0
  0
VERTEX
  8
LAYER1
 10
0.7365
 20
1.6122
 30
0
 70
     0
  0
VERTEX
  8
LAYER1
 10
0.7795
 20
1.6567
 30
0
 70
     0
  0
VERTEX
  8
LAYER1
 10
0.8303
 20
1.6834
 30
0
 70
     0
  0
VERTEX
  8
LAYER1
 10
0.8889
 20
1.6923
 30
0
 70
     0
  0
VERTEX
  8
LAYER1
 10
0.8889
 20
1.6923
 30
0
 70
     0
  0
VERTEX
  8
LAYER1
 10
0.9475
 20
1.6806
 30
0
 70
     0
  0
VERTEX
  8
LAYER1
 10
0.9983
 20
1.6454
 30
0
 70
     0
  0
VERTEX
  8
LAYER1
 10
1.0412
 20
1.5868
 30
0
 70
     0
  0
VERTEX
  8
LAYER1
 10
1.0764
 20
1.5048
 30
0
 70
     0
  0
VERTEX
  8
LAYER1
 10
1.1037
 20
1.3993
 30
0
 70
     0
  0
VERTEX
  8
LAYER1
 10
1.1233
 20
1.2704
 30
0
 70
     0
  0
VERTEX
  8
LAYER1
 10
1.135
 20
1.1181
 30
0
 70
     0
  0
VERTEX
  8
LAYER1
 10
1.1389
 20
0.9423
 30
0
 70
     0
  0
SEQEND
  0
POLYLINE
  8
LAYER1
  6
CONTINUOUS
 62
     7
 66
     1
 70
     0
 40
0.001
 41
0.001
  0
VERTEX
  8
LAYER1
 10
0.6458
 20
1.1228
 30
0
 70
     0
  0
VERTEX
  8
LAYER1
 10
0.7474
 20
1.1188
 30
0
 70
     0
  0
VERTEX
  8
LAYER1
 10
0.8424
 20
1.1074
 30
0
 70
     0
  0
VERTEX
  8
LAYER1
 10
0.9284
 20
1.0894
 30
0
 70
     0
  0
VERTEX
  8
LAYER1
 10
1.0036
 20
1.0656
 30
0
 70
     0
  0
VERTEX
  8
LAYER1
 10
1.0657
 20
1.0368
 30
0
 70
     0
  0
VERTEX
  8
LAYER1
 10
1.1127
 20
1.0037
 30
0
 70
     0
  0
VERTEX
  8
LAYER1
 10
1.1298
 20
0.9859
 30
0
 70
     0
  0
VERTEX
  8
LAYER1
 10
1.1424
 20
0.9674
 30
0
 70
     0
  0
VERTEX
  8
LAYER1
 10
1.1501
 20
0.9481
 30
0
 70
     0
  0
VERTEX
  8
LAYER1
 10
1.1528
 20
0.9284
 30
0
 70
     0
  0
SEQEND
  0
ENDBLK
  8
LAYER1
  0
BLOCK
  8
LAYER1
  2
Group13
 70
     0
 10
0
 20
0
 30
0
  0
TEXT
  8
LAYER1
 62
     7
 10
2.5047
 20
0.0599
 30
0
 40
0.1389
  1
- 4-153 -
 50
0
999
Geneva
  0
LINE
  8
LAYER1
  6
CONTINUOUS
 62
     7
 10
0.2083
 20
10.8728
 30
0
 11
4.7083
 21
10.8728
 31
0
  0
TEXT
  8
LAYER1
 62
     7
 10
0.2269
 20
10.6571
 30
0
 40
0.125
  1
Computer Flow Chart
 50
0
999
Geneva
  0
INSERT
  8
LAYER1
  2
Group1
 10
0
 20
0
 30
0
  0
TEXT
  8
LAYER1
 62
     7
 10
0.5463
 20
9.1988
 30
0
 40
0.0833
  1
3.5"Floppy
 50
0
999
Geneva
  0
TEXT
  8
LAYER1
 62
     7
 10
0.5463
 20
9.0182
 30
0
 40
0.0833
  1
3.5"Floppy
 50
0
999
Geneva
  0
INSERT
  8
LAYER1
  2
Group2
 10
0
 20
0
 30
0
  0
TEXT
  8
LAYER1
 62
     7
 10
1.9908
 20
9.1988
 30
0
 40
0.0833
  1
5.25"Floppy
 50
0
999
Geneva
  0
TEXT
  8
LAYER1
 62
     7
 10
1.9908
 20
9.0182
 30
0
 40
0.0833
  1
5.25"Floppy
 50
0
999
Geneva
  0
INSERT
  8
LAYER1
  2
Group3
 10
0
 20
0
 30
0
  0
TEXT
  8
LAYER1
 62
     7
 10
3.3658
 20
9.1988
 30
0
 40
0.0833
  1
CD.ROM Disk
 50
0
999
Geneva
  0
TEXT
  8
LAYER1
 62
     7
 10
3.1852
 20
9.0182
 30
0
 40
0.0833
  1
Compact Disk ROM
 50
0
999
Geneva
  0
TEXT
  8
LAYER1
 62
     7
 10
5.0186
 20
9.1988
 30
0
 40
0.0833
  1
Q.Tape
 50
0
999
Geneva
  0
TEXT
  8
LAYER1
 62
     7
 10
4.8936
 20
9.0182
 30
0
 40
0.0833
  1
Quick Tape
 50
0
999
Geneva
  0
INSERT
  8
LAYER1
  2
Group4
 10
0
 20
0
 30
0
  0
LINE
  8
LAYER1
  6
CONTINUOUS
 62
     7
 10
5.4861
 20
10.0395
 30
0
 11
5.6806
 21
10.0395
 31
0
  0
POLYLINE
  8
LAYER1
  6
CONTINUOUS
 62
     7
 66
     1
 70
     0
 40
0.001
 41
0.001
  0
VERTEX
  8
LAYER1
 10
0.8889
 20
7.9978
 30
0
 70
     0
  0
VERTEX
  8
LAYER1
 10
0.8342
 20
8.115
 30
0
 70
     0
  0
VERTEX
  8
LAYER1
 10
0.7951
 20
8.2166
 30
0
 70
     0
  0
VERTEX
  8
LAYER1
 10
0.7717
 20
8.3025
 30
0
 70
     0
  0
VERTEX
  8
LAYER1
 10
0.7639
 20
8.3728
 30
0
 70
     0
  0
VERTEX
  8
LAYER1
 10
0.7717
 20
8.4275
 30
0
 70
     0
  0
VERTEX
  8
LAYER1
 10
0.7951
 20
8.4666
 30
0
 70
     0
  0
VERTEX
  8
LAYER1
 10
0.8342
 20
8.49
 30
0
 70
     0
  0
VERTEX
  8
LAYER1
 10
0.8889
 20
8.4978
 30
0
 70
     0
  0
VERTEX
  8
LAYER1
 10
0.8889
 20
8.4978
 30
0
 70
     0
  0
VERTEX
  8
LAYER1
 10
0.9436
 20
8.49
 30
0
 70
     0
  0
VERTEX
  8
LAYER1
 10
0.9826
 20
8.4666
 30
0
 70
     0
  0
VERTEX
  8
LAYER1
 10
1.0061
 20
8.4275
 30
0
 70
     0
  0
VERTEX
  8
LAYER1
 10
1.0139
 20
8.3728
 30
0
 70
     0
  0
VERTEX
  8
LAYER1
 10
1.0061
 20
8.3025
 30
0
 70
     0
  0
VERTEX
  8
LAYER1
 10
0.9826
 20
8.2166
 30
0
 70
     0
  0
VERTEX
  8
LAYER1
 10
0.9436
 20
8.115
 30
0
 70
     0
  0
VERTEX
  8
LAYER1
 10
0.8889
 20
7.9978
 30
0
 70
     0
  0
VERTEX
  8
LAYER1
 10
0.8889
 20
7.9978
 30
0
 70
     0
  0
VERTEX
  8
LAYER1
 10
0.8342
 20
7.8806
 30
0
 70
     0
  0
VERTEX
  8
LAYER1
 10
0.7951
 20
7.7791
 30
0
 70
     0
  0
VERTEX
  8
LAYER1
 10
0.7717
 20
7.6931
 30
0
 70
     0
  0
VERTEX
  8
LAYER1
 10
0.7639
 20
7.6228
 30
0
 70
     0
  0
VERTEX
  8
LAYER1
 10
0.7717
 20
7.5681
 30
0
 70
     0
  0
VERTEX
  8
LAYER1
 10
0.7951
 20
7.5291
 30
0
 70
     0
  0
VERTEX
  8
LAYER1
 10
0.8342
 20
7.5056
 30
0
 70
     0
  0
VERTEX
  8
LAYER1
 10
0.8889
 20
7.4978
 30
0
 70
     0
  0
VERTEX
  8
LAYER1
 10
0.8889
 20
7.4978
 30
0
 70
     0
  0
VERTEX
  8
LAYER1
 10
0.9436
 20
7.5056
 30
0
 70
     0
  0
VERTEX
  8
LAYER1
 10
0.9826
 20
7.5291
 30
0
 70
     0
  0
VERTEX
  8
LAYER1
 10
1.0061
 20
7.5681
 30
0
 70
     0
  0
VERTEX
  8
LAYER1
 10
1.0139
 20
7.6228
 30
0
 70
     0
  0
VERTEX
  8
LAYER1
 10
1.0061
 20
7.6931
 30
0
 70
     0
  0
VERTEX
  8
LAYER1
 10
0.9826
 20
7.7791
 30
0
 70
     0
  0
VERTEX
  8
LAYER1
 10
0.9436
 20
7.8806
 30
0
 70
     0
  0
VERTEX
  8
LAYER1
 10
0.8889
 20
7.9978
 30
0
 70
     0
  0
SEQEND
  0
TEXT
  8
LAYER1
 62
     7
 10
0.6713
 20
7.1988
 30
0
 40
0.0833
  1
Collate
 50
0
999
Geneva
  0
TEXT
  8
LAYER1
 62
     7
 10
0.6713
 20
7.0321
 30
0
 40
0.0833
  1
Collate
 50
0
999
Geneva
  0
POLYLINE
  8
LAYER1
  6
CONTINUOUS
 62
     7
 66
     1
 70
     0
 40
0.001
 41
0.001
  0
VERTEX
  8
LAYER1
 10
2
 20
7.8103
 30
0
 70
     0
  0
VERTEX
  8
LAYER1
 10
1.918
 20
7.8572
 30
0
 70
     0
  0
VERTEX
  8
LAYER1
 10
1.8594
 20
7.9041
 30
0
 70
     0
  0
VERTEX
  8
LAYER1
 10
1.8242
 20
7.951
 30
0
 70
     0
  0
VERTEX
  8
LAYER1
 10
1.8125
 20
7.9978
 30
0
 70
     0
  0
VERTEX
  8
LAYER1
 10
1.8242
 20
8.0447
 30
0
 70
     0
  0
VERTEX
  8
LAYER1
 10
1.8594
 20
8.0916
 30
0
 70
     0
  0
VERTEX
  8
LAYER1
 10
1.918
 20
8.1385
 30
0
 70
     0
  0
VERTEX
  8
LAYER1
 10
2
 20
8.1853
 30
0
 70
     0
  0
VERTEX
  8
LAYER1
 10
2
 20
8.1853
 30
0
 70
     0
  0
VERTEX
  8
LAYER1
 10
2.0937
 20
8.2263
 30
0
 70
     0
  0
VERTEX
  8
LAYER1
 10
2.1875
 20
8.2556
 30
0
 70
     0
  0
VERTEX
  8
LAYER1
 10
2.2812
 20
8.2732
 30
0
 70
     0
  0
VERTEX
  8
LAYER1
 10
2.375
 20
8.2791
 30
0
 70
     0
  0
VERTEX
  8
LAYER1
 10
2.4687
 20
8.2732
 30
0
 70
     0
  0
VERTEX
  8
LAYER1
 10
2.5625
 20
8.2556
 30
0
 70
     0
  0
VERTEX
  8
LAYER1
 10
2.6562
 20
8.2263
 30
0
 70
     0
  0
VERTEX
  8
LAYER1
 10
2.75
 20
8.1853
 30
0
 70
     0
  0
VERTEX
  8
LAYER1
 10
2.75
 20
8.1853
 30
0
 70
     0
  0
VERTEX
  8
LAYER1
 10
2.832
 20
8.1385
 30
0
 70
     0
  0
VERTEX
  8
LAYER1
 10
2.8906
 20
8.0916
 30
0
 70
     0
  0
VERTEX
  8
LAYER1
 10
2.9258
 20
8.0447
 30
0
 70
     0
  0
VERTEX
  8
LAYER1
 10
2.9375
 20
7.9978
 30
0
 70
     0
  0
VERTEX
  8
LAYER1
 10
2.9258
 20
7.951
 30
0
 70
     0
  0
VERTEX
  8
LAYER1
 10
2.8906
 20
7.9041
 30
0
 70
     0
  0
VERTEX
  8
LAYER1
 10
2.832
 20
7.8572
 30
0
 70
     0
  0
VERTEX
  8
LAYER1
 10
2.75
 20
7.8103
 30
0
 70
     0
  0
VERTEX
  8
LAYER1
 10
2.75
 20
7.8103
 30
0
 70
     0
  0
VERTEX
  8
LAYER1
 10
2.6562
 20
7.7693
 30
0
 70
     0
  0
VERTEX
  8
LAYER1
 10
2.5625
 20
7.74
 30
0
 70
     0
  0
VERTEX
  8
LAYER1
 10
2.4687
 20
7.7224
 30
0
 70
     0
  0
VERTEX
  8
LAYER1
 10
2.375
 20
7.7166
 30
0
 70
     0
  0
VERTEX
  8
LAYER1
 10
2.2812
 20
7.7224
 30
0
 70
     0
  0
VERTEX
  8
LAYER1
 10
2.1875
 20
7.74
 30
0
 70
     0
  0
VERTEX
  8
LAYER1
 10
2.0937
 20
7.7693
 30
0
 70
     0
  0
VERTEX
  8
LAYER1
 10
2
 20
7.8103
 30
0
 70
     0
  0
SEQEND
  0
TEXT
  8
LAYER1
 62
     7
 10
2.1158
 20
7.1988
 30
0
 40
0.0833
  1
Decision
 50
0
999
Geneva
  0
TEXT
  8
LAYER1
 62
     7
 10
2.1158
 20
7.0321
 30
0
 40
0.0833
  1
Decision
 50
0
999
Geneva
  0
INSERT
  8
LAYER1
  2
Group5
 10
0
 20
0
 30
0
  0
TEXT
  8
LAYER1
 62
     7
 10
3.6297
 20
7.1988
 30
0
 40
0.0833
  1
Disk
 50
0
999
Geneva
  0
TEXT
  8
LAYER1
 62
     7
 10
3.6297
 20
7.0321
 30
0
 40
0.0833
  1
Disk
 50
0
999
Geneva
  0
INSERT
  8
LAYER1
  2
Group6
 10
0
 20
0
 30
0
  0
TEXT
  8
LAYER1
 62
     7
 10
5.0047
 20
7.1988
 30
0
 40
0.0833
  1
Display
 50
0
999
Geneva
  0
TEXT
  8
LAYER1
 62
     7
 10
5.0047
 20
7.0321
 30
0
 40
0.0833
  1
Display
 50
0
999
Geneva
  0
TEXT
  8
LAYER1
 62
     7
 10
0.588
 20
5.5738
 30
0
 40
0.0833
  1
Document
 50
0
999
Geneva
  0
TEXT
  8
LAYER1
 62
     7
 10
0.588
 20
5.4071
 30
0
 40
0.0833
  1
Document
 50
0
999
Geneva
  0
INSERT
  8
LAYER1
  2
Group7
 10
0
 20
0
 30
0
  0
INSERT
  8
LAYER1
  2
Group8
 10
0
 20
0
 30
0
  0
TEXT
  8
LAYER1
 62
     7
 10
2.213
 20
5.5877
 30
0
 40
0.0833
  1
Drum
 50
0
999
Geneva
  0
TEXT
  8
LAYER1
 62
     7
 10
2.213
 20
5.4071
 30
0
 40
0.0833
  1
Drum
 50
0
999
Geneva
  0
POLYLINE
  8
LAYER1
  6
CONTINUOUS
 62
     7
 66
     1
 70
     0
 40
0.001
 41
0.001
  0
VERTEX
  8
LAYER1
 10
3.7708
 20
5.8728
 30
0
 70
     0
  0
VERTEX
  8
LAYER1
 10
3.6717
 20
5.8787
 30
0
 70
     0
  0
VERTEX
  8
LAYER1
 10
3.5929
 20
5.8963
 30
0
 70
     0
  0
VERTEX
  8
LAYER1
 10
3.5345
 20
5.9256
 30
0
 70
     0
  0
VERTEX
  8
LAYER1
 10
3.4965
 20
5.9666
 30
0
 70
     0
  0
VERTEX
  8
LAYER1
 10
3.4789
 20
6.0193
 30
0
 70
     0
  0
VERTEX
  8
LAYER1
 10
3.4818
 20
6.0838
 30
0
 70
     0
  0
VERTEX
  8
LAYER1
 10
3.505
 20
6.1599
 30
0
 70
     0
  0
VERTEX
  8
LAYER1
 10
3.5486
 20
6.2478
 30
0
 70
     0
  0
VERTEX
  8
LAYER1
 10
3.5486
 20
6.2478
 30
0
 70
     0
  0
VERTEX
  8
LAYER1
 10
3.6025
 20
6.3299
 30
0
 70
     0
  0
VERTEX
  8
LAYER1
 10
3.6567
 20
6.3885
 30
0
 70
     0
  0
VERTEX
  8
LAYER1
 10
3.711
 20
6.4236
 30
0
 70
     0
  0
VERTEX
  8
LAYER1
 10
3.7656
 20
6.4353
 30
0
 70
     0
  0
VERTEX
  8
LAYER1
 10
3.8204
 20
6.4236
 30
0
 70
     0
  0
VERTEX
  8
LAYER1
 10
3.8754
 20
6.3885
 30
0
 70
     0
  0
VERTEX
  8
LAYER1
 10
3.9307
 20
6.3299
 30
0
 70
     0
  0
VERTEX
  8
LAYER1
 10
3.9861
 20
6.2478
 30
0
 70
     0
  0
VERTEX
  8
LAYER1
 10
3.9861
 20
6.2478
 30
0
 70
     0
  0
VERTEX
  8
LAYER1
 10
4.0314
 20
6.1599
 30
0
 70
     0
  0
VERTEX
  8
LAYER1
 10
4.056
 20
6.0838
 30
0
 70
     0
  0
VERTEX
  8
LAYER1
 10
4.06
 20
6.0193
 30
0
 70
     0
  0
VERTEX
  8
LAYER1
 10
4.0434
 20
5.9666
 30
0
 70
     0
  0
VERTEX
  8
LAYER1
 10
4.0062
 20
5.9256
 30
0
 70
     0
  0
VERTEX
  8
LAYER1
 10
3.9483
 20
5.8963
 30
0
 70
     0
  0
VERTEX
  8
LAYER1
 10
3.8699
 20
5.8787
 30
0
 70
     0
  0
VERTEX
  8
LAYER1
 10
3.7708
 20
5.8728
 30
0
 70
     0
  0
SEQEND
  0
TEXT
  8
LAYER1
 62
     7
 10
3.5325
 20
5.5877
 30
0
 40
0.0833
  1
Extract
 50
0
999
Geneva
  0
TEXT
  8
LAYER1
 62
     7
 10
3.5325
 20
5.4071
 30
0
 40
0.0833
  1
Extract
 50
0
999
Geneva
  0
INSERT
  8
LAYER1
  2
Group9
 10
0
 20
0
 30
0
  0
TEXT
  8
LAYER1
 62
     7
 10
4.9352
 20
5.5877
 30
0
 40
0.0833
  1
In/Output
 50
0
999
Geneva
  0
TEXT
  8
LAYER1
 62
     7
 10
4.838
 20
5.4071
 30
0
 40
0.0833
  1
Input/Output
 50
0
999
Geneva
  0
LINE
  8
LAYER1
  6
CONTINUOUS
 62
     7
 10
5.5278
 20
5.9423
 30
0
 11
5.75
 21
6.5673
 31
0
  0
POLYLINE
  8
LAYER1
  6
CONTINUOUS
 62
     7
 66
     1
 70
     0
 40
0.001
 41
0.001
  0
VERTEX
  8
LAYER1
 10
0.8819
 20
4.1923
 30
0
 70
     0
  0
VERTEX
  8
LAYER1
 10
0.7729
 20
4.1942
 30
0
 70
     0
  0
VERTEX
  8
LAYER1
 10
0.6784
 20
4.2001
 30
0
 70
     0
  0
VERTEX
  8
LAYER1
 10
0.5984
 20
4.2098
 30
0
 70
     0
  0
VERTEX
  8
LAYER1
 10
0.533
 20
4.2235
 30
0
 70
     0
  0
VERTEX
  8
LAYER1
 10
0.4821
 20
4.2411
 30
0
 70
     0
  0
VERTEX
  8
LAYER1
 10
0.4457
 20
4.2626
 30
0
 70
     0
  0
VERTEX
  8
LAYER1
 10
0.4239
 20
4.288
 30
0
 70
     0
  0
VERTEX
  8
LAYER1
 10
0.4167
 20
4.3173
 30
0
 70
     0
  0
VERTEX
  8
LAYER1
 10
0.4167
 20
4.3173
 30
0
 70
     0
  0
VERTEX
  8
LAYER1
 10
0.4239
 20
4.3485
 30
0
 70
     0
  0
VERTEX
  8
LAYER1
 10
0.4457
 20
4.3798
 30
0
 70
     0
  0
VERTEX
  8
LAYER1
 10
0.4821
 20
4.411
 30
0
 70
     0
  0
VERTEX
  8
LAYER1
 10
0.533
 20
4.4423
 30
0
 70
     0
  0
VERTEX
  8
LAYER1
 10
0.5984
 20
4.4735
 30
0
 70
     0
  0
VERTEX
  8
LAYER1
 10
0.6784
 20
4.5048
 30
0
 70
     0
  0
VERTEX
  8
LAYER1
 10
0.7729
 20
4.536
 30
0
 70
     0
  0
VERTEX
  8
LAYER1
 10
0.8819
 20
4.5673
 30
0
 70
     0
  0
VERTEX
  8
LAYER1
 10
0.8819
 20
4.5673
 30
0
 70
     0
  0
VERTEX
  8
LAYER1
 10
0.991
 20
4.5927
 30
0
 70
     0
  0
VERTEX
  8
LAYER1
 10
1.0855
 20
4.6063
 30
0
 70
     0
  0
VERTEX
  8
LAYER1
 10
1.1655
 20
4.6083
 30
0
 70
     0
  0
VERTEX
  8
LAYER1
 10
1.2309
 20
4.5985
 30
0
 70
     0
  0
VERTEX
  8
LAYER1
 10
1.2818
 20
4.577
 30
0
 70
     0
  0
VERTEX
  8
LAYER1
 10
1.3181
 20
4.5438
 30
0
 70
     0
  0
VERTEX
  8
LAYER1
 10
1.3399
 20
4.4989
 30
0
 70
     0
  0
VERTEX
  8
LAYER1
 10
1.3472
 20
4.4423
 30
0
 70
     0
  0
VERTEX
  8
LAYER1
 10
1.3472
 20
4.4423
 30
0
 70
     0
  0
VERTEX
  8
LAYER1
 10
1.3399
 20
4.3837
 30
0
 70
     0
  0
VERTEX
  8
LAYER1
 10
1.3181
 20
4.3329
 30
0
 70
     0
  0
VERTEX
  8
LAYER1
 10
1.2818
 20
4.2899
 30
0
 70
     0
  0
VERTEX
  8
LAYER1
 10
1.2309
 20
4.2548
 30
0
 70
     0
  0
VERTEX
  8
LAYER1
 10
1.1655
 20
4.2274
 30
0
 70
     0
  0
VERTEX
  8
LAYER1
 10
1.0855
 20
4.2079
 30
0
 70
     0
  0
VERTEX
  8
LAYER1
 10
0.991
 20
4.1962
 30
0
 70
     0
  0
VERTEX
  8
LAYER1
 10
0.8819
 20
4.1923
 30
0
 70
     0
  0
SEQEND
  0
TEXT
  8
LAYER1
 62
     7
 10
0.6713
 20
3.7682
 30
0
 40
0.0833
  1
Manual
 50
0
999
Geneva
  0
TEXT
  8
LAYER1
 62
     7
 10
0.6713
 20
3.5877
 30
0
 40
0.0833
  1
Manual
 50
0
999
Geneva
  0
POLYLINE
  8
LAYER1
  6
CONTINUOUS
 62
     7
 66
     1
 70
     0
 40
0.001
 41
0.001
  0
VERTEX
  8
LAYER1
 10
1.9097
 20
4.3798
 30
0
 70
     0
  0
VERTEX
  8
LAYER1
 10
1.882
 20
4.453
 30
0
 70
     0
  0
VERTEX
  8
LAYER1
 10
1.8789
 20
4.5165
 30
0
 70
     0
  0
VERTEX
  8
LAYER1
 10
1.9003
 20
4.5702
 30
0
 70
     0
  0
VERTEX
  8
LAYER1
 10
1.9462
 20
4.6141
 30
0
 70
     0
  0
VERTEX
  8
LAYER1
 10
2.0166
 20
4.6483
 30
0
 70
     0
  0
VERTEX
  8
LAYER1
 10
2.1115
 20
4.6727
 30
0
 70
     0
  0
VERTEX
  8
LAYER1
 10
2.231
 20
4.6874
 30
0
 70
     0
  0
VERTEX
  8
LAYER1
 10
2.375
 20
4.6923
 30
0
 70
     0
  0
VERTEX
  8
LAYER1
 10
2.375
 20
4.6923
 30
0
 70
     0
  0
VERTEX
  8
LAYER1
 10
2.5194
 20
4.6874
 30
0
 70
     0
  0
VERTEX
  8
LAYER1
 10
2.6402
 20
4.6727
 30
0
 70
     0
  0
VERTEX
  8
LAYER1
 10
2.7373
 20
4.6483
 30
0
 70
     0
  0
VERTEX
  8
LAYER1
 10
2.8108
 20
4.6141
 30
0
 70
     0
  0
VERTEX
  8
LAYER1
 10
2.8606
 20
4.5702
 30
0
 70
     0
  0
VERTEX
  8
LAYER1
 10
2.8867
 20
4.5165
 30
0
 70
     0
  0
VERTEX
  8
LAYER1
 10
2.8892
 20
4.453
 30
0
 70
     0
  0
VERTEX
  8
LAYER1
 10
2.8681
 20
4.3798
 30
0
 70
     0
  0
VERTEX
  8
LAYER1
 10
2.8681
 20
4.3798
 30
0
 70
     0
  0
VERTEX
  8
LAYER1
 10
2.8319
 20
4.3065
 30
0
 70
     0
  0
VERTEX
  8
LAYER1
 10
2.7895
 20
4.2431
 30
0
 70
     0
  0
VERTEX
  8
LAYER1
 10
2.7408
 20
4.1893
 30
0
 70
     0
  0
VERTEX
  8
LAYER1
 10
2.6858
 20
4.1454
 30
0
 70
     0
  0
VERTEX
  8
LAYER1
 10
2.6244
 20
4.1112
 30
0
 70
     0
  0
VERTEX
  8
LAYER1
 10
2.5569
 20
4.0868
 30
0
 70
     0
  0
VERTEX
  8
LAYER1
 10
2.483
 20
4.0722
 30
0
 70
     0
  0
VERTEX
  8
LAYER1
 10
2.4028
 20
4.0673
 30
0
 70
     0
  0
VERTEX
  8
LAYER1
 10
2.4028
 20
4.0673
 30
0
 70
     0
  0
VERTEX
  8
LAYER1
 10
2.3222
 20
4.0722
 30
0
 70
     0
  0
VERTEX
  8
LAYER1
 10
2.247
 20
4.0868
 30
0
 70
     0
  0
VERTEX
  8
LAYER1
 10
2.1772
 20
4.1112
 30
0
 70
     0
  0
VERTEX
  8
LAYER1
 10
2.1128
 20
4.1454
 30
0
 70
     0
  0
VERTEX
  8
LAYER1
 10
2.0539
 20
4.1893
 30
0
 70
     0
  0
VERTEX
  8
LAYER1
 10
2.0004
 20
4.2431
 30
0
 70
     0
  0
VERTEX
  8
LAYER1
 10
1.9524
 20
4.3065
 30
0
 70
     0
  0
VERTEX
  8
LAYER1
 10
1.9097
 20
4.3798
 30
0
 70
     0
  0
SEQEND
  0
POLYLINE
  8
LAYER1
  6
CONTINUOUS
 62
     7
 66
     1
 70
     0
 40
0.001
 41
0.001
  0
VERTEX
  8
LAYER1
 10
3.7708
 20
4.7478
 30
0
 70
     0
  0
VERTEX
  8
LAYER1
 10
3.6717
 20
4.742
 30
0
 70
     0
  0
VERTEX
  8
LAYER1
 10
3.5929
 20
4.7244
 30
0
 70
     0
  0
VERTEX
  8
LAYER1
 10
3.5345
 20
4.6951
 30
0
 70
     0
  0
VERTEX
  8
LAYER1
 10
3.4965
 20
4.6541
 30
0
 70
     0
  0
VERTEX
  8
LAYER1
 10
3.4789
 20
4.6013
 30
0
 70
     0
  0
VERTEX
  8
LAYER1
 10
3.4818
 20
4.5369
 30
0
 70
     0
  0
VERTEX
  8
LAYER1
 10
3.505
 20
4.4607
 30
0
 70
     0
  0
VERTEX
  8
LAYER1
 10
3.5486
 20
4.3728
 30
0
 70
     0
  0
VERTEX
  8
LAYER1
 10
3.5486
 20
4.3728
 30
0
 70
     0
  0
VERTEX
  8
LAYER1
 10
3.6025
 20
4.2908
 30
0
 70
     0
  0
VERTEX
  8
LAYER1
 10
3.6567
 20
4.2322
 30
0
 70
     0
  0
VERTEX
  8
LAYER1
 10
3.711
 20
4.197
 30
0
 70
     0
  0
VERTEX
  8
LAYER1
 10
3.7656
 20
4.1853
 30
0
 70
     0
  0
VERTEX
  8
LAYER1
 10
3.8204
 20
4.197
 30
0
 70
     0
  0
VERTEX
  8
LAYER1
 10
3.8754
 20
4.2322
 30
0
 70
     0
  0
VERTEX
  8
LAYER1
 10
3.9307
 20
4.2908
 30
0
 70
     0
  0
VERTEX
  8
LAYER1
 10
3.9861
 20
4.3728
 30
0
 70
     0
  0
VERTEX
  8
LAYER1
 10
3.9861
 20
4.3728
 30
0
 70
     0
  0
VERTEX
  8
LAYER1
 10
4.0314
 20
4.4607
 30
0
 70
     0
  0
VERTEX
  8
LAYER1
 10
4.056
 20
4.5369
 30
0
 70
     0
  0
VERTEX
  8
LAYER1
 10
4.06
 20
4.6013
 30
0
 70
     0
  0
VERTEX
  8
LAYER1
 10
4.0434
 20
4.6541
 30
0
 70
     0
  0
VERTEX
  8
LAYER1
 10
4.0062
 20
4.6951
 30
0
 70
     0
  0
VERTEX
  8
LAYER1
 10
3.9483
 20
4.7244
 30
0
 70
     0
  0
VERTEX
  8
LAYER1
 10
3.8699
 20
4.742
 30
0
 70
     0
  0
VERTEX
  8
LAYER1
 10
3.7708
 20
4.7478
 30
0
 70
     0
  0
SEQEND
  0
TEXT
  8
LAYER1
 62
     7
 10
3.5741
 20
3.7682
 30
0
 40
0.0833
  1
Merge
 50
0
999
Geneva
  0
TEXT
  8
LAYER1
 62
     7
 10
3.5741
 20
3.5877
 30
0
 40
0.0833
  1
Merge
 50
0
999
Geneva
  0
TEXT
  8
LAYER1
 62
     7
 10
1.9352
 20
3.7682
 30
0
 40
0.0833
  1
Man.Operation
 50
0
999
Geneva
  0
TEXT
  8
LAYER1
 62
     7
 10
1.838
 20
3.5877
 30
0
 40
0.0833
  1
Manual Operation
 50
0
999
Geneva
  0
POLYLINE
  8
LAYER1
  6
CONTINUOUS
 62
     7
 66
     1
 70
     0
 40
0.001
 41
0.001
  0
VERTEX
  8
LAYER1
 10
4.8333
 20
4.5534
 30
0
 70
     0
  0
VERTEX
  8
LAYER1
 10
4.8396
 20
4.6055
 30
0
 70
     0
  0
VERTEX
  8
LAYER1
 10
4.8585
 20
4.6506
 30
0
 70
     0
  0
VERTEX
  8
LAYER1
 10
4.89
 20
4.6888
 30
0
 70
     0
  0
VERTEX
  8
LAYER1
 10
4.934
 20
4.72
 30
0
 70
     0
  0
VERTEX
  8
LAYER1
 10
4.9907
 20
4.7444
 30
0
 70
     0
  0
VERTEX
  8
LAYER1
 10
5.0599
 20
4.7617
 30
0
 70
     0
  0
VERTEX
  8
LAYER1
 10
5.1417
 20
4.7721
 30
0
 70
     0
  0
VERTEX
  8
LAYER1
 10
5.2361
 20
4.7756
 30
0
 70
     0
  0
VERTEX
  8
LAYER1
 10
5.2361
 20
4.7756
 30
0
 70
     0
  0
VERTEX
  8
LAYER1
 10
5.3305
 20
4.7721
 30
0
 70
     0
  0
VERTEX
  8
LAYER1
 10
5.4123
 20
4.7617
 30
0
 70
     0
  0
VERTEX
  8
LAYER1
 10
5.4815
 20
4.7444
 30
0
 70
     0
  0
VERTEX
  8
LAYER1
 10
5.5382
 20
4.72
 30
0
 70
     0
  0
VERTEX
  8
LAYER1
 10
5.5822
 20
4.6888
 30
0
 70
     0
  0
VERTEX
  8
LAYER1
 10
5.6137
 20
4.6506
 30
0
 70
     0
  0
VERTEX
  8
LAYER1
 10
5.6326
 20
4.6055
 30
0
 70
     0
  0
VERTEX
  8
LAYER1
 10
5.6389
 20
4.5534
 30
0
 70
     0
  0
VERTEX
  8
LAYER1
 10
5.6389
 20
4.5534
 30
0
 70
     0
  0
VERTEX
  8
LAYER1
 10
5.6263
 20
4.4449
 30
0
 70
     0
  0
VERTEX
  8
LAYER1
 10
5.5885
 20
4.3416
 30
0
 70
     0
  0
VERTEX
  8
LAYER1
 10
5.5256
 20
4.2435
 30
0
 70
     0
  0
VERTEX
  8
LAYER1
 10
5.4375
 20
4.1506
 30
0
 70
     0
  0
VERTEX
  8
LAYER1
 10
5.4375
 20
4.1506
 30
0
 70
     0
  0
VERTEX
  8
LAYER1
 10
5.3871
 20
4.1111
 30
0
 70
     0
  0
VERTEX
  8
LAYER1
 10
5.3368
 20
4.0829
 30
0
 70
     0
  0
VERTEX
  8
LAYER1
 10
5.2864
 20
4.066
 30
0
 70
     0
  0
VERTEX
  8
LAYER1
 10
5.2361
 20
4.0603
 30
0
 70
     0
  0
VERTEX
  8
LAYER1
 10
5.1858
 20
4.066
 30
0
 70
     0
  0
VERTEX
  8
LAYER1
 10
5.1354
 20
4.0829
 30
0
 70
     0
  0
VERTEX
  8
LAYER1
 10
5.0851
 20
4.1111
 30
0
 70
     0
  0
VERTEX
  8
LAYER1
 10
5.0347
 20
4.1506
 30
0
 70
     0
  0
VERTEX
  8
LAYER1
 10
5.0347
 20
4.1506
 30
0
 70
     0
  0
VERTEX
  8
LAYER1
 10
4.9466
 20
4.2435
 30
0
 70
     0
  0
VERTEX
  8
LAYER1
 10
4.8837
 20
4.3416
 30
0
 70
     0
  0
VERTEX
  8
LAYER1
 10
4.8459
 20
4.4449
 30
0
 70
     0
  0
VERTEX
  8
LAYER1
 10
4.8333
 20
4.5534
 30
0
 70
     0
  0
SEQEND
  0
TEXT
  8
LAYER1
 62
     7
 10
4.9908
 20
3.7682
 30
0
 40
0.0833
  1
Offpage
 50
0
999
Geneva
  0
TEXT
  8
LAYER1
 62
     7
 10
4.9908
 20
3.5877
 30
0
 40
0.0833
  1
Offpage
 50
0
999
Geneva
  0
INSERT
  8
LAYER1
  2
Group10
 10
0
 20
0
 30
0
  0
TEXT
  8
LAYER1
 62
     7
 10
0.6991
 20
2.2405
 30
0
 40
0.0833
  1
Online
 50
0
999
Geneva
  0
TEXT
  8
LAYER1
 62
     7
 10
0.6991
 20
2.0599
 30
0
 40
0.0833
  1
Online
 50
0
999
Geneva
  0
POLYLINE
  8
LAYER1
  6
CONTINUOUS
 62
     7
 66
     1
 70
     0
 40
0.001
 41
0.001
  0
VERTEX
  8
LAYER1
 10
1.9236
 20
2.7339
 30
0
 70
     0
  0
VERTEX
  8
LAYER1
 10
1.9474
 20
2.7079
 30
0
 70
     0
  0
VERTEX
  8
LAYER1
 10
1.9805
 20
2.6853
 30
0
 70
     0
  0
VERTEX
  8
LAYER1
 10
2.0229
 20
2.6662
 30
0
 70
     0
  0
VERTEX
  8
LAYER1
 10
2.0746
 20
2.6506
 30
0
 70
     0
  0
VERTEX
  8
LAYER1
 10
2.1357
 20
2.6385
 30
0
 70
     0
  0
VERTEX
  8
LAYER1
 10
2.2062
 20
2.6298
 30
0
 70
     0
  0
VERTEX
  8
LAYER1
 10
2.2859
 20
2.6246
 30
0
 70
     0
  0
VERTEX
  8
LAYER1
 10
2.375
 20
2.6228
 30
0
 70
     0
  0
VERTEX
  8
LAYER1
 10
2.375
 20
2.6228
 30
0
 70
     0
  0
VERTEX
  8
LAYER1
 10
2.4641
 20
2.6246
 30
0
 70
     0
  0
VERTEX
  8
LAYER1
 10
2.5438
 20
2.6298
 30
0
 70
     0
  0
VERTEX
  8
LAYER1
 10
2.6143
 20
2.6385
 30
0
 70
     0
  0
VERTEX
  8
LAYER1
 10
2.6753
 20
2.6506
 30
0
 70
     0
  0
VERTEX
  8
LAYER1
 10
2.7271
 20
2.6662
 30
0
 70
     0
  0
VERTEX
  8
LAYER1
 10
2.7695
 20
2.6853
 30
0
 70
     0
  0
VERTEX
  8
LAYER1
 10
2.8026
 20
2.7079
 30
0
 70
     0
  0
VERTEX
  8
LAYER1
 10
2.8264
 20
2.7339
 30
0
 70
     0
  0
VERTEX
  8
LAYER1
 10
2.8264
 20
2.7339
 30
0
 70
     0
  0
VERTEX
  8
LAYER1
 10
2.855
 20
2.7895
 30
0
 70
     0
  0
VERTEX
  8
LAYER1
 10
2.8646
 20
2.845
 30
0
 70
     0
  0
VERTEX
  8
LAYER1
 10
2.855
 20
2.9006
 30
0
 70
     0
  0
VERTEX
  8
LAYER1
 10
2.8264
 20
2.9562
 30
0
 70
     0
  0
VERTEX
  8
LAYER1
 10
2.8264
 20
2.9562
 30
0
 70
     0
  0
VERTEX
  8
LAYER1
 10
2.8026
 20
2.9822
 30
0
 70
     0
  0
VERTEX
  8
LAYER1
 10
2.7695
 20
3.0048
 30
0
 70
     0
  0
VERTEX
  8
LAYER1
 10
2.7271
 20
3.0239
 30
0
 70
     0
  0
VERTEX
  8
LAYER1
 10
2.6753
 20
3.0395
 30
0
 70
     0
  0
VERTEX
  8
LAYER1
 10
2.6143
 20
3.0516
 30
0
 70
     0
  0
VERTEX
  8
LAYER1
 10
2.5438
 20
3.0603
 30
0
 70
     0
  0
VERTEX
  8
LAYER1
 10
2.4641
 20
3.0655
 30
0
 70
     0
  0
VERTEX
  8
LAYER1
 10
2.375
 20
3.0673
 30
0
 70
     0
  0
VERTEX
  8
LAYER1
 10
2.375
 20
3.0673
 30
0
 70
     0
  0
VERTEX
  8
LAYER1
 10
2.2859
 20
3.0655
 30
0
 70
     0
  0
VERTEX
  8
LAYER1
 10
2.2062
 20
3.0603
 30
0
 70
     0
  0
VERTEX
  8
LAYER1
 10
2.1357
 20
3.0516
 30
0
 70
     0
  0
VERTEX
  8
LAYER1
 10
2.0746
 20
3.0395
 30
0
 70
     0
  0
VERTEX
  8
LAYER1
 10
2.0229
 20
3.0239
 30
0
 70
     0
  0
VERTEX
  8
LAYER1
 10
1.9805
 20
3.0048
 30
0
 70
     0
  0
VERTEX
  8
LAYER1
 10
1.9474
 20
2.9822
 30
0
 70
     0
  0
VERTEX
  8
LAYER1
 10
1.9236
 20
2.9562
 30
0
 70
     0
  0
VERTEX
  8
LAYER1
 10
1.9236
 20
2.9562
 30
0
 70
     0
  0
VERTEX
  8
LAYER1
 10
1.895
 20
2.9006
 30
0
 70
     0
  0
VERTEX
  8
LAYER1
 10
1.8854
 20
2.845
 30
0
 70
     0
  0
VERTEX
  8
LAYER1
 10
1.895
 20
2.7895
 30
0
 70
     0
  0
VERTEX
  8
LAYER1
 10
1.9236
 20
2.7339
 30
0
 70
     0
  0
SEQEND
  0
TEXT
  8
LAYER1
 62
     7
 10
2.0047
 20
2.2405
 30
0
 40
0.0833
  1
Preparation
 50
0
999
Geneva
  0
TEXT
  8
LAYER1
 62
     7
 10
2.0047
 20
2.0599
 30
0
 40
0.0833
  1
Preparation
 50
0
999
Geneva
  0
INSERT
  8
LAYER1
  2
Group11
 10
0
 20
0
 30
0
  0
TEXT
  8
LAYER1
 62
     7
 10
3.6297
 20
2.2405
 30
0
 40
0.0833
  1
Sort
 50
0
999
Geneva
  0
TEXT
  8
LAYER1
 62
     7
 10
3.6297
 20
2.0599
 30
0
 40
0.0833
  1
Sort
 50
0
999
Geneva
  0
POLYLINE
  8
LAYER1
  6
CONTINUOUS
 62
     7
 66
     1
 70
     1
 40
0.001
 41
0.001
  0
VERTEX
  8
LAYER1
 10
5.25
 20
2.9978
 30
0
 70
     0
  0
VERTEX
  8
LAYER1
 10
5.6042
 20
2.9978
 30
0
 70
     0
  0
VERTEX
  8
LAYER1
 10
5.6042
 20
2.9978
 30
0
 70
     0
  0
VERTEX
  8
LAYER1
 10
5.6417
 20
2.994
 30
0
 70
     0
  0
VERTEX
  8
LAYER1
 10
5.6768
 20
2.983
 30
0
 70
     0
  0
VERTEX
  8
LAYER1
 10
5.7087
 20
2.9656
 30
0
 70
     0
  0
VERTEX
  8
LAYER1
 10
5.7365
 20
2.9426
 30
0
 70
     0
  0
VERTEX
  8
LAYER1
 10
5.7595
 20
2.9149
 30
0
 70
     0
  0
VERTEX
  8
LAYER1
 10
5.7768
 20
2.883
 30
0
 70
     0
  0
VERTEX
  8
LAYER1
 10
5.7878
 20
2.8479
 30
0
 70
     0
  0
VERTEX
  8
LAYER1
 10
5.7917
 20
2.8103
 30
0
 70
     0
  0
VERTEX
  8
LAYER1
 10
5.7917
 20
2.8103
 30
0
 70
     0
  0
VERTEX
  8
LAYER1
 10
5.7917
 20
2.7964
 30
0
 70
     0
  0
VERTEX
  8
LAYER1
 10
5.7917
 20
2.7964
 30
0
 70
     0
  0
VERTEX
  8
LAYER1
 10
5.7878
 20
2.7588
 30
0
 70
     0
  0
VERTEX
  8
LAYER1
 10
5.7768
 20
2.7238
 30
0
 70
     0
  0
VERTEX
  8
LAYER1
 10
5.7595
 20
2.6919
 30
0
 70
     0
  0
VERTEX
  8
LAYER1
 10
5.7365
 20
2.6641
 30
0
 70
     0
  0
VERTEX
  8
LAYER1
 10
5.7087
 20
2.6411
 30
0
 70
     0
  0
VERTEX
  8
LAYER1
 10
5.6768
 20
2.6238
 30
0
 70
     0
  0
VERTEX
  8
LAYER1
 10
5.6417
 20
2.6128
 30
0
 70
     0
  0
VERTEX
  8
LAYER1
 10
5.6042
 20
2.6089
 30
0
 70
     0
  0
VERTEX
  8
LAYER1
 10
5.6042
 20
2.6089
 30
0
 70
     0
  0
VERTEX
  8
LAYER1
 10
4.8958
 20
2.6089
 30
0
 70
     0
  0
VERTEX
  8
LAYER1
 10
4.8958
 20
2.6089
 30
0
 70
     0
  0
VERTEX
  8
LAYER1
 10
4.8582
 20
2.6128
 30
0
 70
     0
  0
VERTEX
  8
LAYER1
 10
4.8231
 20
2.6238
 30
0
 70
     0
  0
VERTEX
  8
LAYER1
 10
4.7913
 20
2.6411
 30
0
 70
     0
  0
VERTEX
  8
LAYER1
 10
4.7635
 20
2.6641
 30
0
 70
     0
  0
VERTEX
  8
LAYER1
 10
4.7405
 20
2.6919
 30
0
 70
     0
  0
VERTEX
  8
LAYER1
 10
4.7232
 20
2.7238
 30
0
 70
     0
  0
VERTEX
  8
LAYER1
 10
4.7122
 20
2.7588
 30
0
 70
     0
  0
VERTEX
  8
LAYER1
 10
4.7083
 20
2.7964
 30
0
 70
     0
  0
VERTEX
  8
LAYER1
 10
4.7083
 20
2.7964
 30
0
 70
     0
  0
VERTEX
  8
LAYER1
 10
4.7083
 20
2.8103
 30
0
 70
     0
  0
VERTEX
  8
LAYER1
 10
4.7083
 20
2.8103
 30
0
 70
     0
  0
VERTEX
  8
LAYER1
 10
4.7122
 20
2.8479
 30
0
 70
     0
  0
VERTEX
  8
LAYER1
 10
4.7232
 20
2.883
 30
0
 70
     0
  0
VERTEX
  8
LAYER1
 10
4.7405
 20
2.9149
 30
0
 70
     0
  0
VERTEX
  8
LAYER1
 10
4.7635
 20
2.9426
 30
0
 70
     0
  0
VERTEX
  8
LAYER1
 10
4.7913
 20
2.9656
 30
0
 70
     0
  0
VERTEX
  8
LAYER1
 10
4.8231
 20
2.983
 30
0
 70
     0
  0
VERTEX
  8
LAYER1
 10
4.8582
 20
2.994
 30
0
 70
     0
  0
VERTEX
  8
LAYER1
 10
4.8958
 20
2.9978
 30
0
 70
     0
  0
VERTEX
  8
LAYER1
 10
4.8958
 20
2.9978
 30
0
 70
     0
  0
VERTEX
  8
LAYER1
 10
5.25
 20
2.9978
 30
0
 70
     0
  0
SEQEND
  0
TEXT
  8
LAYER1
 62
     7
 10
4.9491
 20
2.2405
 30
0
 40
0.0833
  1
Terminal
 50
0
999
Geneva
  0
TEXT
  8
LAYER1
 62
     7
 10
4.9491
 20
2.0599
 30
0
 40
0.0833
  1
Terminal
 50
0
999
Geneva
  0
INSERT
  8
LAYER1
  2
Group12
 10
0
 20
0
 30
0
  0
TEXT
  8
LAYER1
 62
     7
 10
0.4352
 20
0.6988
 30
0
 40
0.0833
  1
Transmit Tape
 50
0
999
Geneva
  0
TEXT
  8
LAYER1
 62
     7
 10
0.4352
 20
0.5182
 30
0
 40
0.0833
  1
Transmit Tape
 50
0
999
Geneva
  0
TEXT
  8
LAYER1
 62
     7
 10
4.9352
 20
0.296
 30
0
 40
0.0833
  1
©1992
 50
0
999
Geneva
  0
TEXT
  8
LAYER1
 62
     7
 10
4.2269
 20
0.1293
 30
0
 40
0.0833
  1
Advanced System Design, Inc.
 50
0
999
Geneva
  0
TEXT
  8
LAYER1
 62
     7
 10
0.2547
 20
0.1293
 30
0
 40
0.0833
  1
Scale 1:1  Printed at 70%
 50
0
999
Geneva
  0
TEXT
  8
LAYER1
 62
     7
 10
0.6713
 20
8.8516
 30
0
 40
0.0833
  1
37000
 50
0
999
Geneva
  0
TEXT
  8
LAYER1
 62
     7
 10
2.1713
 20
8.8516
 30
0
 40
0.0833
  1
37001
 50
0
999
Geneva
  0
TEXT
  8
LAYER1
 62
     7
 10
3.5602
 20
8.8516
 30
0
 40
0.0833
  1
37002
 50
0
999
Geneva
  0
TEXT
  8
LAYER1
 62
     7
 10
5.0186
 20
8.8516
 30
0
 40
0.0833
  1
37003
 50
0
999
Geneva
  0
TEXT
  8
LAYER1
 62
     7
 10
0.6713
 20
6.8516
 30
0
 40
0.0833
  1
37004
 50
0
999
Geneva
  0
TEXT
  8
LAYER1
 62
     7
 10
2.1713
 20
6.8516
 30
0
 40
0.0833
  1
37005
 50
0
999
Geneva
  0
TEXT
  8
LAYER1
 62
     7
 10
3.5602
 20
6.8516
 30
0
 40
0.0833
  1
37006
 50
0
999
Geneva
  0
TEXT
  8
LAYER1
 62
     7
 10
5.0186
 20
6.8516
 30
0
 40
0.0833
  1
37007
 50
0
999
Geneva
  0
TEXT
  8
LAYER1
 62
     7
 10
0.6713
 20
5.2266
 30
0
 40
0.0833
  1
37008
 50
0
999
Geneva
  0
TEXT
  8
LAYER1
 62
     7
 10
2.1713
 20
5.2266
 30
0
 40
0.0833
  1
37009
 50
0
999
Geneva
  0
TEXT
  8
LAYER1
 62
     7
 10
3.5602
 20
5.2266
 30
0
 40
0.0833
  1
37010
 50
0
999
Geneva
  0
TEXT
  8
LAYER1
 62
     7
 10
5.0186
 20
5.2266
 30
0
 40
0.0833
  1
37011
 50
0
999
Geneva
  0
TEXT
  8
LAYER1
 62
     7
 10
0.6713
 20
3.4071
 30
0
 40
0.0833
  1
37012
 50
0
999
Geneva
  0
TEXT
  8
LAYER1
 62
     7
 10
2.1713
 20
3.4071
 30
0
 40
0.0833
  1
37013
 50
0
999
Geneva
  0
TEXT
  8
LAYER1
 62
     7
 10
3.5602
 20
3.4071
 30
0
 40
0.0833
  1
37014
 50
0
999
Geneva
  0
TEXT
  8
LAYER1
 62
     7
 10
5.0186
 20
3.4071
 30
0
 40
0.0833
  1
37015
 50
0
999
Geneva
  0
TEXT
  8
LAYER1
 62
     7
 10
0.6713
 20
1.8932
 30
0
 40
0.0833
  1
37016
 50
0
999
Geneva
  0
TEXT
  8
LAYER1
 62
     7
 10
2.1713
 20
1.8932
 30
0
 40
0.0833
  1
37017
 50
0
999
Geneva
  0
TEXT
  8
LAYER1
 62
     7
 10
3.5602
 20
1.8932
 30
0
 40
0.0833
  1
37018
 50
0
999
Geneva
  0
TEXT
  8
LAYER1
 62
     7
 10
5.0186
 20
1.8932
 30
0
 40
0.0833
  1
37019
 50
0
999
Geneva
  0
TEXT
  8
LAYER1
 62
     7
 10
0.6713
 20
0.3516
 30
0
 40
0.0833
  1
37020
 50
0
999
Geneva
  0
ENDBLK
  8
LAYER1
  0
ENDSEC
  0
SECTION
  2
ENTITIES
  0
INSERT
  8
LAYER1
  2
Group13
 10
0
 20
0
 30
0
  0
ENDSEC
  0
EOF
